  0
SECTION
  2
HEADER
  9
$ACADVER
  1
AC1032
  9
$ACADMAINTVER
 90
       55
  9
$DWGCODEPAGE
  3
ANSI_1252
  9
$LASTSAVEDBY
  1
hallgrimur.ingi
  9
$REQUIREDVERSIONS
160
                 0
  9
$INSBASE
 10
0.0
 20
0.0
 30
0.0
  9
$EXTMIN
 10
0.144359375
 20
-0.01
 30
1.357
  9
$EXTMAX
 10
435527.004
 20
614616.584
 30
7.636
  9
$LIMMIN
 10
0.0
 20
0.0
  9
$LIMMAX
 10
420.0
 20
297.0
  9
$ORTHOMODE
 70
     0
  9
$REGENMODE
 70
     1
  9
$FILLMODE
 70
     1
  9
$QTEXTMODE
 70
     0
  9
$MIRRTEXT
 70
     1
  9
$LTSCALE
 40
0.6
  9
$ATTMODE
 70
     1
  9
$TEXTSIZE
 40
2.5
  9
$TRACEWID
 40
1.0
  9
$TEXTSTYLE
  7
Standard
  9
$CLAYER
  8
0
  9
$CELTYPE
  6
ByLayer
  9
$CECOLOR
 62
   256
  9
$CELTSCALE
 40
1.0
  9
$DISPSILH
 70
     0
  9
$DIMSCALE
 40
1.0
  9
$DIMASZ
 40
2.5
  9
$DIMEXO
 40
0.625
  9
$DIMDLI
 40
3.75
  9
$DIMRND
 40
0.0
  9
$DIMDLE
 40
0.0
  9
$DIMEXE
 40
1.25
  9
$DIMTP
 40
0.0
  9
$DIMTM
 40
0.0
  9
$DIMTXT
 40
2.5
  9
$DIMCEN
 40
2.5
  9
$DIMTSZ
 40
0.0
  9
$DIMTOL
 70
     0
  9
$DIMLIM
 70
     0
  9
$DIMTIH
 70
     0
  9
$DIMTOH
 70
     0
  9
$DIMSE1
 70
     0
  9
$DIMSE2
 70
     0
  9
$DIMTAD
 70
     1
  9
$DIMZIN
 70
     8
  9
$DIMBLK
  1

  9
$DIMASO
 70
     1
  9
$DIMSHO
 70
     1
  9
$DIMPOST
  1

  9
$DIMAPOST
  1

  9
$DIMALT
 70
     0
  9
$DIMALTD
 70
     3
  9
$DIMALTF
 40
0.03937007874016
  9
$DIMLFAC
 40
1.0
  9
$DIMTOFL
 70
     1
  9
$DIMTVP
 40
0.0
  9
$DIMTIX
 70
     0
  9
$DIMSOXD
 70
     0
  9
$DIMSAH
 70
     0
  9
$DIMBLK1
  1

  9
$DIMBLK2
  1

  9
$DIMSTYLE
  2
ISO-25
  9
$DIMCLRD
 70
     0
  9
$DIMCLRE
 70
     0
  9
$DIMCLRT
 70
     0
  9
$DIMTFAC
 40
1.0
  9
$DIMGAP
 40
0.625
  9
$DIMJUST
 70
     0
  9
$DIMSD1
 70
     0
  9
$DIMSD2
 70
     0
  9
$DIMTOLJ
 70
     0
  9
$DIMTZIN
 70
     8
  9
$DIMALTZ
 70
     0
  9
$DIMALTTZ
 70
     0
  9
$DIMUPT
 70
     0
  9
$DIMDEC
 70
     2
  9
$DIMTDEC
 70
     2
  9
$DIMALTU
 70
     2
  9
$DIMALTTD
 70
     3
  9
$DIMTXSTY
  7
Standard
  9
$DIMAUNIT
 70
     0
  9
$DIMADEC
 70
     0
  9
$DIMALTRND
 40
0.0
  9
$DIMAZIN
 70
     0
  9
$DIMDSEP
 70
    44
  9
$DIMATFIT
 70
     3
  9
$DIMFRAC
 70
     0
  9
$DIMLDRBLK
  1

  9
$DIMLUNIT
 70
     2
  9
$DIMLWD
 70
    -2
  9
$DIMLWE
 70
    -2
  9
$DIMTMOVE
 70
     0
  9
$DIMFXL
 40
1.0
  9
$DIMFXLON
 70
     0
  9
$DIMJOGANG
 40
0.7853981633974483
  9
$DIMTFILL
 70
     0
  9
$DIMTFILLCLR
 70
     0
  9
$DIMARCSYM
 70
     0
  9
$DIMLTYPE
  6

  9
$DIMLTEX1
  6

  9
$DIMLTEX2
  6

  9
$DIMTXTDIRECTION
 70
     0
  9
$LUNITS
 70
     2
  9
$LUPREC
 70
     4
  9
$SKETCHINC
 40
1.0
  9
$FILLETRAD
 40
10.0
  9
$AUNITS
 70
     0
  9
$AUPREC
 70
     0
  9
$MENU
  1
.
  9
$ELEVATION
 40
0.0
  9
$PELEVATION
 40
0.0
  9
$THICKNESS
 40
0.0
  9
$LIMCHECK
 70
     0
  9
$CHAMFERA
 40
0.0
  9
$CHAMFERB
 40
0.0
  9
$CHAMFERC
 40
0.0
  9
$CHAMFERD
 40
0.0
  9
$SKPOLY
 70
     0
  9
$TDCREATE
 40
2460510.862930868
  9
$TDUCREATE
 40
2460510.862930868
  9
$TDUPDATE
 40
2460510.862933518
  9
$TDUUPDATE
 40
2460510.862933518
  9
$TDINDWG
 40
0.0000000116
  9
$TDUSRTIMER
 40
0.0000000116
  9
$USRTIMER
 70
     1
  9
$ANGBASE
 50
0.0
  9
$ANGDIR
 70
     0
  9
$PDMODE
 70
     0
  9
$PDSIZE
 40
0.0
  9
$PLINEWID
 40
0.0
  9
$SPLFRAME
 70
     0
  9
$SPLINETYPE
 70
     6
  9
$SPLINESEGS
 70
     8
  9
$HANDSEED
  5
26D
  9
$SURFTAB1
 70
     6
  9
$SURFTAB2
 70
     6
  9
$SURFTYPE
 70
     6
  9
$SURFU
 70
     6
  9
$SURFV
 70
     6
  9
$UCSBASE
  2

  9
$UCSNAME
  2

  9
$UCSORG
 10
0.0
 20
0.0
 30
0.0
  9
$UCSXDIR
 10
1.0
 20
0.0
 30
0.0
  9
$UCSYDIR
 10
0.0
 20
1.0
 30
0.0
  9
$UCSORTHOREF
  2

  9
$UCSORTHOVIEW
 70
     0
  9
$UCSORGTOP
 10
0.0
 20
0.0
 30
0.0
  9
$UCSORGBOTTOM
 10
0.0
 20
0.0
 30
0.0
  9
$UCSORGLEFT
 10
0.0
 20
0.0
 30
0.0
  9
$UCSORGRIGHT
 10
0.0
 20
0.0
 30
0.0
  9
$UCSORGFRONT
 10
0.0
 20
0.0
 30
0.0
  9
$UCSORGBACK
 10
0.0
 20
0.0
 30
0.0
  9
$PUCSBASE
  2

  9
$PUCSNAME
  2

  9
$PUCSORG
 10
0.0
 20
0.0
 30
0.0
  9
$PUCSXDIR
 10
1.0
 20
0.0
 30
0.0
  9
$PUCSYDIR
 10
0.0
 20
1.0
 30
0.0
  9
$PUCSORTHOREF
  2

  9
$PUCSORTHOVIEW
 70
     0
  9
$PUCSORGTOP
 10
0.0
 20
0.0
 30
0.0
  9
$PUCSORGBOTTOM
 10
0.0
 20
0.0
 30
0.0
  9
$PUCSORGLEFT
 10
0.0
 20
0.0
 30
0.0
  9
$PUCSORGRIGHT
 10
0.0
 20
0.0
 30
0.0
  9
$PUCSORGFRONT
 10
0.0
 20
0.0
 30
0.0
  9
$PUCSORGBACK
 10
0.0
 20
0.0
 30
0.0
  9
$USERI1
 70
     0
  9
$USERI2
 70
     0
  9
$USERI3
 70
     0
  9
$USERI4
 70
     0
  9
$USERI5
 70
     0
  9
$USERR1
 40
0.0
  9
$USERR2
 40
0.0
  9
$USERR3
 40
0.0
  9
$USERR4
 40
0.0
  9
$USERR5
 40
0.0
  9
$WORLDVIEW
 70
     1
  9
$SHADEDGE
 70
     3
  9
$SHADEDIF
 70
    70
  9
$TILEMODE
 70
     1
  9
$MAXACTVP
 70
    64
  9
$PINSBASE
 10
0.0
 20
0.0
 30
0.0
  9
$PLIMCHECK
 70
     0
  9
$PEXTMIN
 10
1.000000000000000E+20
 20
1.000000000000000E+20
 30
1.000000000000000E+20
  9
$PEXTMAX
 10
-1.000000000000000E+20
 20
-1.000000000000000E+20
 30
-1.000000000000000E+20
  9
$PLIMMIN
 10
0.0
 20
0.0
  9
$PLIMMAX
 10
420.0
 20
297.0
  9
$UNITMODE
 70
     0
  9
$VISRETAIN
 70
     1
  9
$PLINEGEN
 70
     0
  9
$PSLTSCALE
 70
     1
  9
$TREEDEPTH
 70
  3020
  9
$CMLSTYLE
  2
Standard
  9
$CMLJUST
 70
     0
  9
$CMLSCALE
 40
20.0
  9
$PROXYGRAPHICS
 70
     1
  9
$MEASUREMENT
 70
     1
  9
$CELWEIGHT
370
    -1
  9
$ENDCAPS
280
     0
  9
$JOINSTYLE
280
     0
  9
$LWDISPLAY
290
     0
  9
$INSUNITS
 70
     6
  9
$HYPERLINKBASE
  1

  9
$STYLESHEET
  1

  9
$XEDIT
290
     1
  9
$CEPSNTYPE
380
     0
  9
$PSTYLEMODE
290
     1
  9
$FINGERPRINTGUID
  2
{387cd58f-ace0-47bc-ac11-aafce36fd0fa}
  9
$VERSIONGUID
  2
{FAEB1C32-E019-11D5-929B-00C0DF256EC4}
  9
$EXTNAMES
290
     1
  9
$PSVPSCALE
 40
0.0
  9
$OLESTARTUP
290
     0
  9
$SORTENTS
280
   127
  9
$INDEXCTL
280
     0
  9
$HIDETEXT
280
     1
  9
$XCLIPFRAME
280
     2
  9
$HALOGAP
280
     0
  9
$OBSCOLOR
 70
   257
  9
$OBSLTYPE
280
     0
  9
$INTERSECTIONDISPLAY
280
     0
  9
$INTERSECTIONCOLOR
 70
   257
  9
$DIMASSOC
280
     2
  9
$PROJECTNAME
  1

  9
$CAMERADISPLAY
290
     0
  9
$LENSLENGTH
 40
50.0
  9
$CAMERAHEIGHT
 40
0.0
  9
$STEPSPERSEC
 40
2.0
  9
$STEPSIZE
 40
6.0
  9
$3DDWFPREC
 40
2.0
  9
$PSOLWIDTH
 40
5.0
  9
$PSOLHEIGHT
 40
80.0
  9
$LOFTANG1
 40
1.570796326794897
  9
$LOFTANG2
 40
1.570796326794897
  9
$LOFTMAG1
 40
0.0
  9
$LOFTMAG2
 40
0.0
  9
$LOFTPARAM
 70
     7
  9
$LOFTNORMALS
280
     1
  9
$LATITUDE
 40
37.795
  9
$LONGITUDE
 40
-122.394
  9
$NORTHDIRECTION
 40
0.0
  9
$TIMEZONE
 70
 -8000
  9
$LIGHTGLYPHDISPLAY
280
     1
  9
$TILEMODELIGHTSYNCH
280
     1
  9
$CMATERIAL
347
44
  9
$SOLIDHIST
280
     0
  9
$SHOWHIST
280
     1
  9
$DWFFRAME
280
     2
  9
$DGNFRAME
280
     2
  9
$REALWORLDSCALE
290
     1
  9
$INTERFERECOLOR
 62
   256
  9
$CSHADOW
280
     0
  9
$SHADOWPLANELOCATION
 40
0.0
  0
ENDSEC
  0
SECTION
  2
CLASSES
  0
CLASS
  1
ACDBDICTIONARYWDFLT
  2
AcDbDictionaryWithDefault
  3
ObjectDBX Classes
 90
        0
 91
        3
280
     0
281
     0
  0
CLASS
  1
VISUALSTYLE
  2
AcDbVisualStyle
  3
ObjectDBX Classes
 90
     4095
 91
        3
280
     0
281
     0
  0
CLASS
  1
MATERIAL
  2
AcDbMaterial
  3
ObjectDBX Classes
 90
     1153
 91
        3
280
     0
281
     0
  0
CLASS
  1
SCALE
  2
AcDbScale
  3
ObjectDBX Classes
 90
     1153
 91
        3
280
     0
281
     0
  0
CLASS
  1
TABLESTYLE
  2
AcDbTableStyle
  3
ObjectDBX Classes
 90
     4095
 91
        3
280
     0
281
     0
  0
CLASS
  1
MLEADERSTYLE
  2
AcDbMLeaderStyle
  3
ACDB_MLEADERSTYLE_CLASS
 90
     4095
 91
        3
280
     0
281
     0
  0
CLASS
  1
SUN
  2
AcDbSun
  3
SCENEOE
 90
     1153
 91
        3
280
     0
281
     0
  0
CLASS
  1
DICTIONARYVAR
  2
AcDbDictionaryVar
  3
ObjectDBX Classes
 90
        0
 91
        3
280
     0
281
     0
  0
CLASS
  1
CELLSTYLEMAP
  2
AcDbCellStyleMap
  3
ObjectDBX Classes
 90
     1152
 91
        3
280
     0
281
     0
  0
ENDSEC
  0
SECTION
  2
TABLES
  0
TABLE
  2
VPORT
  5
8
330
0
100
AcDbSymbolTable
 70
     1
  0
VPORT
  5
29
330
8
100
AcDbSymbolTableRecord
100
AcDbViewportTableRecord
  2
*Active
 70
     0
 10
0.0
 20
0.0
 11
1.0
 21
1.0
 12
344.1869158878504
 22
148.5
 13
0.0
 23
0.0
 14
10.0
 24
10.0
 15
10.0
 25
10.0
 16
0.0
 26
0.0
 36
1.0
 17
0.0
 27
0.0
 37
0.0
 40
297.0
 41
1.972972972850329
 42
50.0
 43
0.0
 44
0.0
 50
0.0
 51
0.0
 71
     0
 72
   100
 73
     1
 74
     3
 75
     0
 76
     0
 77
     0
 78
     0
281
     0
 65
     1
110
0.0
120
0.0
130
0.0
111
1.0
121
0.0
131
0.0
112
0.0
122
1.0
132
0.0
 79
     0
146
0.0
348
2F
 60
     3
 61
     5
292
     1
282
     1
141
0.0
142
0.0
 63
   250
361
6D
  0
ENDTAB
  0
TABLE
  2
LTYPE
  5
5
330
0
100
AcDbSymbolTable
 70
     1
  0
LTYPE
  5
14
330
5
100
AcDbSymbolTableRecord
100
AcDbLinetypeTableRecord
  2
ByBlock
 70
     0
  3

 72
    65
 73
     0
 40
0.0
  0
LTYPE
  5
15
330
5
100
AcDbSymbolTableRecord
100
AcDbLinetypeTableRecord
  2
ByLayer
 70
     0
  3

 72
    65
 73
     0
 40
0.0
  0
LTYPE
  5
16
330
5
100
AcDbSymbolTableRecord
100
AcDbLinetypeTableRecord
  2
Continuous
 70
     0
  3
Solid line
 72
    65
 73
     0
 40
0.0
  0
ENDTAB
  0
TABLE
  2
LAYER
  5
2
330
0
100
AcDbSymbolTable
 70
     5
  0
LAYER
  5
10
330
2
100
AcDbSymbolTableRecord
100
AcDbLayerTableRecord
  2
0
 70
     0
 62
     7
  6
Continuous
370
    -3
390
F
347
46
348
0
  0
LAYER
  5
79
330
2
100
AcDbSymbolTableRecord
100
AcDbLayerTableRecord
  2
POINT_NUMBER
 70
     0
 62
    -7
420
 16777215
  6
Continuous
370
    -3
390
F
347
46
348
0
  0
LAYER
  5
7B
330
2
100
AcDbSymbolTableRecord
100
AcDbLayerTableRecord
  2
DESCRIPTION
 70
     0
 62
    -7
420
 16777215
  6
Continuous
370
    -3
390
F
347
46
348
0
  0
LAYER
  5
7D
330
2
100
AcDbSymbolTableRecord
100
AcDbLayerTableRecord
  2
ELEVATION
 70
     0
 62
    -7
420
 16777215
  6
Continuous
370
    -3
390
F
347
46
348
0
  0
LAYER
  5
80
330
2
100
AcDbSymbolTableRecord
100
AcDbLayerTableRecord
  2
Points
 70
     0
 62
     7
  6
Continuous
370
     0
390
F
347
46
348
0
  0
ENDTAB
  0
TABLE
  2
STYLE
  5
3
330
0
100
AcDbSymbolTable
 70
     1
  0
STYLE
  5
11
330
3
100
AcDbSymbolTableRecord
100
AcDbTextStyleTableRecord
  2
Standard
 70
     0
 40
0.0
 41
1.0
 50
0.0
 71
     0
 42
2.5
  3
txt
  4

  0
ENDTAB
  0
TABLE
  2
VIEW
  5
6
330
0
100
AcDbSymbolTable
 70
     0
  0
ENDTAB
  0
TABLE
  2
UCS
  5
7
330
0
100
AcDbSymbolTable
 70
     0
  0
ENDTAB
  0
TABLE
  2
APPID
  5
9
330
0
100
AcDbSymbolTable
 70
     3
  0
APPID
  5
12
330
9
100
AcDbSymbolTableRecord
100
AcDbRegAppTableRecord
  2
ACAD
 70
     0
  0
APPID
  5
6E
330
9
100
AcDbSymbolTableRecord
100
AcDbRegAppTableRecord
  2
TrimbleName
 70
     0
  0
APPID
  5
6F
330
9
100
AcDbSymbolTableRecord
100
AcDbRegAppTableRecord
  2
TrimbleBndyType
 70
     0
  0
ENDTAB
  0
TABLE
  2
DIMSTYLE
  5
A
330
0
100
AcDbSymbolTable
 70
     2
100
AcDbDimStyleTable
  0
DIMSTYLE
105
27
330
A
100
AcDbSymbolTableRecord
100
AcDbDimStyleTableRecord
  2
ISO-25
 70
     0
 41
2.5
 42
0.625
 43
3.75
 44
1.25
 73
     0
 74
     0
 77
     1
 78
     8
140
2.5
141
2.5
143
0.03937007874016
147
0.625
171
     3
172
     1
178
     0
271
     2
272
     2
274
     3
278
    44
283
     0
284
     8
340
11
  0
DIMSTYLE
105
70
330
A
100
AcDbSymbolTableRecord
100
AcDbDimStyleTableRecord
  2
Standard
 70
     0
 41
12.0
 42
6.0
 44
6.0
 45
0.0001
 73
     0
 77
     1
140
3.0
147
3.0
173
     1
178
     0
179
     1
275
     1
276
     2
279
     2
340
11
343
71
344
71
  0
ENDTAB
  0
TABLE
  2
BLOCK_RECORD
  5
1
330
0
100
AcDbSymbolTable
 70
     3
  0
BLOCK_RECORD
  5
1F
330
1
100
AcDbSymbolTableRecord
100
AcDbBlockTableRecord
  2
*Model_Space
340
22
 70
     0
280
     1
281
     0
  0
BLOCK_RECORD
  5
1B
330
1
100
AcDbSymbolTableRecord
100
AcDbBlockTableRecord
  2
*Paper_Space
340
1E
 70
     0
280
     1
281
     0
  0
BLOCK_RECORD
  5
23
330
1
100
AcDbSymbolTableRecord
100
AcDbBlockTableRecord
  2
*Paper_Space0
340
26
 70
     0
280
     1
281
     0
  0
BLOCK_RECORD
  5
71
330
1
100
AcDbSymbolTableRecord
100
AcDbBlockTableRecord
  2
_Open
340
0
 70
     0
280
     1
281
     0
  0
BLOCK_RECORD
  5
77
330
1
100
AcDbSymbolTableRecord
100
AcDbBlockTableRecord
  2
Point
340
0
102
{BLKREFS
331
7F
331
84
331
88
331
8C
331
90
331
94
331
98
331
9C
331
A0
331
A4
331
A8
331
AC
331
B0
331
B4
331
B8
331
BC
331
C0
331
C4
331
C8
331
CC
331
D0
331
D4
331
D8
331
DC
331
E0
331
E4
331
E8
331
EC
331
F0
331
F4
331
F8
331
FC
331
100
331
104
331
108
331
10C
331
110
331
114
331
118
331
11C
331
120
331
124
331
128
331
12C
331
130
331
134
331
138
331
13C
331
140
331
144
331
148
331
14C
331
150
331
154
331
158
331
15C
331
160
331
164
331
168
331
16C
331
170
331
174
331
178
331
17C
331
180
331
184
331
188
331
18C
331
190
331
194
331
198
331
19C
331
1A0
331
1A4
331
1A8
331
1AC
331
1B0
331
1B4
331
1B8
331
1BC
331
1C0
331
1C4
331
1C8
331
1CC
331
1D0
331
1D4
331
1D8
331
1DC
331
1E0
331
1E4
331
1E8
331
1EC
331
1F0
331
1F4
331
1F8
331
1FC
102
}
 70
     0
280
     1
281
     0
  0
ENDTAB
  0
ENDSEC
  0
SECTION
  2
BLOCKS
  0
BLOCK
  5
20
330
1F
100
AcDbEntity
  8
0
100
AcDbBlockBegin
  2
*Model_Space
 70
     0
 10
0.0
 20
0.0
 30
0.0
  3
*Model_Space
  1

  0
ENDBLK
  5
21
330
1F
100
AcDbEntity
  8
0
100
AcDbBlockEnd
  0
BLOCK
  5
1C
330
1B
100
AcDbEntity
 67
     1
  8
0
100
AcDbBlockBegin
  2
*Paper_Space
 70
     0
 10
0.0
 20
0.0
 30
0.0
  3
*Paper_Space
  1

  0
ENDBLK
  5
1D
330
1B
100
AcDbEntity
 67
     1
  8
0
100
AcDbBlockEnd
  0
BLOCK
  5
24
330
23
100
AcDbEntity
  8
0
100
AcDbBlockBegin
  2
*Paper_Space0
 70
     0
 10
0.0
 20
0.0
 30
0.0
  3
*Paper_Space0
  1

  0
ENDBLK
  5
25
330
23
100
AcDbEntity
  8
0
100
AcDbBlockEnd
  0
BLOCK
  5
72
330
71
100
AcDbEntity
  8
0
100
AcDbBlockBegin
  2
_Open
 70
     0
 10
0.0
 20
0.0
 30
0.0
  3
_Open
  1

  0
LINE
  5
74
330
71
100
AcDbEntity
  8
0
  6
ByBlock
 62
     0
370
    -2
100
AcDbLine
 10
-1.0
 20
0.166667
 30
0.0
 11
0.0
 21
0.0
 31
0.0
  0
LINE
  5
75
330
71
100
AcDbEntity
  8
0
  6
ByBlock
 62
     0
370
    -2
100
AcDbLine
 10
-1.0
 20
-0.166667
 30
0.0
 11
0.0
 21
0.0
 31
0.0
  0
LINE
  5
76
330
71
100
AcDbEntity
  8
0
  6
ByBlock
 62
     0
370
    -2
100
AcDbLine
 10
0.0
 20
0.0
 30
0.0
 11
-1.0
 21
0.0
 31
0.0
  0
ENDBLK
  5
73
330
71
100
AcDbEntity
  8
0
100
AcDbBlockEnd
  0
BLOCK
  5
200
330
77
100
AcDbEntity
  8
0
100
AcDbBlockBegin
  2
Point
 70
     2
 10
0.0
 20
0.0
 30
0.0
  3
Point
  1

  0
ATTDEF
  5
78
330
77
100
AcDbEntity
  8
POINT_NUMBER
100
AcDbText
 10
0.0
 20
-2.5
 30
0.0
 40
1.0
  1

 11
0.0
 21
-2.0
 31
0.0
100
AcDbAttributeDefinition
  3

  2
POINT_NUMBER
 70
     0
 74
     2
280
     0
 71
     1
 72
     0
 11
0.0
 21
-2.0
 31
0.0
  0
ATTDEF
  5
7A
330
77
100
AcDbEntity
  8
DESCRIPTION
100
AcDbText
 10
0.0
 20
-0.5
 30
0.0
 40
1.0
  1

 11
0.0
 21
0.0
 31
0.0
100
AcDbAttributeDefinition
  3

  2
DESCRIPTION
 70
     0
 74
     2
280
     0
 71
     1
 72
     0
 11
0.0
 21
0.0
 31
0.0
  0
ATTDEF
  5
7C
330
77
100
AcDbEntity
  8
ELEVATION
100
AcDbText
 10
0.0
 20
1.5
 30
0.0
 40
1.0
  1

 11
0.0
 21
2.0
 31
0.0
100
AcDbAttributeDefinition
  3

  2
ELEVATION
 70
     0
 74
     2
280
     0
 71
     1
 72
     0
 11
0.0
 21
2.0
 31
0.0
  0
POINT
  5
7E
330
77
100
AcDbEntity
  8
0
100
AcDbPoint
 10
0.0
 20
0.0
 30
0.0
  0
ENDBLK
  5
201
330
77
100
AcDbEntity
  8
0
100
AcDbBlockEnd
  0
ENDSEC
  0
SECTION
  2
ENTITIES
  0
INSERT
  5
7F
330
1F
100
AcDbEntity
  8
Points
  6
Continuous
100
AcDbBlockReference
 66
     1
  2
Point
 10
435450.885
 20
614244.786
 30
1.382
  0
ATTRIB
  5
81
330
7F
100
AcDbEntity
  8
POINT_NUMBER
100
AcDbText
 10
435450.885
 20
614242.286
 30
1.382
 40
1.0
  1
20240716 001
 11
435450.885
 21
614242.786
 31
1.382
100
AcDbAttribute
  2
POINT_NUMBER
 70
     0
 74
     2
280
     0
 71
     1
 72
     0
 11
435450.885
 21
614242.786
 31
1.382
  0
ATTRIB
  5
82
330
7F
100
AcDbEntity
  8
DESCRIPTION
100
AcDbText
 10
435450.885
 20
614244.286
 30
1.382
 40
1.0
  1
BRU
 11
435450.885
 21
614244.786
 31
1.382
100
AcDbAttribute
  2
DESCRIPTION
 70
     0
 74
     2
280
     0
 71
     1
 72
     0
 11
435450.885
 21
614244.786
 31
1.382
  0
ATTRIB
  5
83
330
7F
100
AcDbEntity
  8
ELEVATION
100
AcDbText
 10
435450.885
 20
614246.286
 30
1.382
 40
1.0
  1
1.382
 11
435450.885
 21
614246.786
 31
1.382
100
AcDbAttribute
  2
ELEVATION
 70
     0
 74
     2
280
     0
 71
     1
 72
     0
 11
435450.885
 21
614246.786
 31
1.382
  0
SEQEND
  5
202
330
7F
100
AcDbEntity
  8
Points
  6
Continuous
  0
INSERT
  5
84
330
1F
100
AcDbEntity
  8
Points
  6
Continuous
100
AcDbBlockReference
 66
     1
  2
Point
 10
435451.077
 20
614247.69
 30
1.357
  0
ATTRIB
  5
85
330
84
100
AcDbEntity
  8
POINT_NUMBER
100
AcDbText
 10
435451.077
 20
614245.19
 30
1.357
 40
1.0
  1
20240716 002
 11
435451.077
 21
614245.69
 31
1.357
100
AcDbAttribute
  2
POINT_NUMBER
 70
     0
 74
     2
280
     0
 71
     1
 72
     0
 11
435451.077
 21
614245.69
 31
1.357
  0
ATTRIB
  5
86
330
84
100
AcDbEntity
  8
DESCRIPTION
100
AcDbText
 10
435451.077
 20
614247.19
 30
1.357
 40
1.0
  1
BRU
 11
435451.077
 21
614247.69
 31
1.357
100
AcDbAttribute
  2
DESCRIPTION
 70
     0
 74
     2
280
     0
 71
     1
 72
     0
 11
435451.077
 21
614247.69
 31
1.357
  0
ATTRIB
  5
87
330
84
100
AcDbEntity
  8
ELEVATION
100
AcDbText
 10
435451.077
 20
614249.19
 30
1.357
 40
1.0
  1
1.357
 11
435451.077
 21
614249.69
 31
1.357
100
AcDbAttribute
  2
ELEVATION
 70
     0
 74
     2
280
     0
 71
     1
 72
     0
 11
435451.077
 21
614249.69
 31
1.357
  0
SEQEND
  5
203
330
84
100
AcDbEntity
  8
Points
  6
Continuous
  0
INSERT
  5
88
330
1F
100
AcDbEntity
  8
Points
  6
Continuous
100
AcDbBlockReference
 66
     1
  2
Point
 10
435453.106
 20
614304.923
 30
2.026
  0
ATTRIB
  5
89
330
88
100
AcDbEntity
  8
POINT_NUMBER
100
AcDbText
 10
435453.106
 20
614302.423
 30
2.026
 40
1.0
  1
20240716 003
 11
435453.106
 21
614302.923
 31
2.026
100
AcDbAttribute
  2
POINT_NUMBER
 70
     0
 74
     2
280
     0
 71
     1
 72
     0
 11
435453.106
 21
614302.923
 31
2.026
  0
ATTRIB
  5
8A
330
88
100
AcDbEntity
  8
DESCRIPTION
100
AcDbText
 10
435453.106
 20
614304.423
 30
2.026
 40
1.0
  1
GONGULEID
 11
435453.106
 21
614304.923
 31
2.026
100
AcDbAttribute
  2
DESCRIPTION
 70
     0
 74
     2
280
     0
 71
     1
 72
     0
 11
435453.106
 21
614304.923
 31
2.026
  0
ATTRIB
  5
8B
330
88
100
AcDbEntity
  8
ELEVATION
100
AcDbText
 10
435453.106
 20
614306.423
 30
2.026
 40
1.0
  1
2.026
 11
435453.106
 21
614306.923
 31
2.026
100
AcDbAttribute
  2
ELEVATION
 70
     0
 74
     2
280
     0
 71
     1
 72
     0
 11
435453.106
 21
614306.923
 31
2.026
  0
SEQEND
  5
204
330
88
100
AcDbEntity
  8
Points
  6
Continuous
  0
INSERT
  5
8C
330
1F
100
AcDbEntity
  8
Points
  6
Continuous
100
AcDbBlockReference
 66
     1
  2
Point
 10
435441.4
 20
614347.814
 30
4.4
  0
ATTRIB
  5
8D
330
8C
100
AcDbEntity
  8
POINT_NUMBER
100
AcDbText
 10
435441.4
 20
614345.314
 30
4.4
 40
1.0
  1
20240716 004
 11
435441.4
 21
614345.814
 31
4.4
100
AcDbAttribute
  2
POINT_NUMBER
 70
     0
 74
     2
280
     0
 71
     1
 72
     0
 11
435441.4
 21
614345.814
 31
4.4
  0
ATTRIB
  5
8E
330
8C
100
AcDbEntity
  8
DESCRIPTION
100
AcDbText
 10
435441.4
 20
614347.314
 30
4.4
 40
1.0
  1
GONGULEID
 11
435441.4
 21
614347.814
 31
4.4
100
AcDbAttribute
  2
DESCRIPTION
 70
     0
 74
     2
280
     0
 71
     1
 72
     0
 11
435441.4
 21
614347.814
 31
4.4
  0
ATTRIB
  5
8F
330
8C
100
AcDbEntity
  8
ELEVATION
100
AcDbText
 10
435441.4
 20
614349.314
 30
4.4
 40
1.0
  1
4.4
 11
435441.4
 21
614349.814
 31
4.4
100
AcDbAttribute
  2
ELEVATION
 70
     0
 74
     2
280
     0
 71
     1
 72
     0
 11
435441.4
 21
614349.814
 31
4.4
  0
SEQEND
  5
205
330
8C
100
AcDbEntity
  8
Points
  6
Continuous
  0
INSERT
  5
90
330
1F
100
AcDbEntity
  8
Points
  6
Continuous
100
AcDbBlockReference
 66
     1
  2
Point
 10
435432.355
 20
614376.781
 30
3.033
  0
ATTRIB
  5
91
330
90
100
AcDbEntity
  8
POINT_NUMBER
100
AcDbText
 10
435432.355
 20
614374.281
 30
3.033
 40
1.0
  1
20240716 005
 11
435432.355
 21
614374.781
 31
3.033
100
AcDbAttribute
  2
POINT_NUMBER
 70
     0
 74
     2
280
     0
 71
     1
 72
     0
 11
435432.355
 21
614374.781
 31
3.033
  0
ATTRIB
  5
92
330
90
100
AcDbEntity
  8
DESCRIPTION
100
AcDbText
 10
435432.355
 20
614376.281
 30
3.033
 40
1.0
  1
GONGULEID
 11
435432.355
 21
614376.781
 31
3.033
100
AcDbAttribute
  2
DESCRIPTION
 70
     0
 74
     2
280
     0
 71
     1
 72
     0
 11
435432.355
 21
614376.781
 31
3.033
  0
ATTRIB
  5
93
330
90
100
AcDbEntity
  8
ELEVATION
100
AcDbText
 10
435432.355
 20
614378.281
 30
3.033
 40
1.0
  1
3.033
 11
435432.355
 21
614378.781
 31
3.033
100
AcDbAttribute
  2
ELEVATION
 70
     0
 74
     2
280
     0
 71
     1
 72
     0
 11
435432.355
 21
614378.781
 31
3.033
  0
SEQEND
  5
206
330
90
100
AcDbEntity
  8
Points
  6
Continuous
  0
INSERT
  5
94
330
1F
100
AcDbEntity
  8
Points
  6
Continuous
100
AcDbBlockReference
 66
     1
  2
Point
 10
435423.592
 20
614391.79
 30
2.823
  0
ATTRIB
  5
95
330
94
100
AcDbEntity
  8
POINT_NUMBER
100
AcDbText
 10
435423.592
 20
614389.29
 30
2.823
 40
1.0
  1
20240716 006
 11
435423.592
 21
614389.79
 31
2.823
100
AcDbAttribute
  2
POINT_NUMBER
 70
     0
 74
     2
280
     0
 71
     1
 72
     0
 11
435423.592
 21
614389.79
 31
2.823
  0
ATTRIB
  5
96
330
94
100
AcDbEntity
  8
DESCRIPTION
100
AcDbText
 10
435423.592
 20
614391.29
 30
2.823
 40
1.0
  1
BRU
 11
435423.592
 21
614391.79
 31
2.823
100
AcDbAttribute
  2
DESCRIPTION
 70
     0
 74
     2
280
     0
 71
     1
 72
     0
 11
435423.592
 21
614391.79
 31
2.823
  0
ATTRIB
  5
97
330
94
100
AcDbEntity
  8
ELEVATION
100
AcDbText
 10
435423.592
 20
614393.29
 30
2.823
 40
1.0
  1
2.823
 11
435423.592
 21
614393.79
 31
2.823
100
AcDbAttribute
  2
ELEVATION
 70
     0
 74
     2
280
     0
 71
     1
 72
     0
 11
435423.592
 21
614393.79
 31
2.823
  0
SEQEND
  5
207
330
94
100
AcDbEntity
  8
Points
  6
Continuous
  0
INSERT
  5
98
330
1F
100
AcDbEntity
  8
Points
  6
Continuous
100
AcDbBlockReference
 66
     1
  2
Point
 10
435420.993
 20
614394.083
 30
2.669
  0
ATTRIB
  5
99
330
98
100
AcDbEntity
  8
POINT_NUMBER
100
AcDbText
 10
435420.993
 20
614391.583
 30
2.669
 40
1.0
  1
20240716 007
 11
435420.993
 21
614392.083
 31
2.669
100
AcDbAttribute
  2
POINT_NUMBER
 70
     0
 74
     2
280
     0
 71
     1
 72
     0
 11
435420.993
 21
614392.083
 31
2.669
  0
ATTRIB
  5
9A
330
98
100
AcDbEntity
  8
DESCRIPTION
100
AcDbText
 10
435420.993
 20
614393.583
 30
2.669
 40
1.0
  1
BRU
 11
435420.993
 21
614394.083
 31
2.669
100
AcDbAttribute
  2
DESCRIPTION
 70
     0
 74
     2
280
     0
 71
     1
 72
     0
 11
435420.993
 21
614394.083
 31
2.669
  0
ATTRIB
  5
9B
330
98
100
AcDbEntity
  8
ELEVATION
100
AcDbText
 10
435420.993
 20
614395.583
 30
2.669
 40
1.0
  1
2.669
 11
435420.993
 21
614396.083
 31
2.669
100
AcDbAttribute
  2
ELEVATION
 70
     0
 74
     2
280
     0
 71
     1
 72
     0
 11
435420.993
 21
614396.083
 31
2.669
  0
SEQEND
  5
208
330
98
100
AcDbEntity
  8
Points
  6
Continuous
  0
INSERT
  5
9C
330
1F
100
AcDbEntity
  8
Points
  6
Continuous
100
AcDbBlockReference
 66
     1
  2
Point
 10
435371.028
 20
614447.798
 30
4.428
  0
ATTRIB
  5
9D
330
9C
100
AcDbEntity
  8
POINT_NUMBER
100
AcDbText
 10
435371.028
 20
614445.298
 30
4.428
 40
1.0
  1
20240716 008
 11
435371.028
 21
614445.798
 31
4.428
100
AcDbAttribute
  2
POINT_NUMBER
 70
     0
 74
     2
280
     0
 71
     1
 72
     0
 11
435371.028
 21
614445.798
 31
4.428
  0
ATTRIB
  5
9E
330
9C
100
AcDbEntity
  8
DESCRIPTION
100
AcDbText
 10
435371.028
 20
614447.298
 30
4.428
 40
1.0
  1
GONGULEID
 11
435371.028
 21
614447.798
 31
4.428
100
AcDbAttribute
  2
DESCRIPTION
 70
     0
 74
     2
280
     0
 71
     1
 72
     0
 11
435371.028
 21
614447.798
 31
4.428
  0
ATTRIB
  5
9F
330
9C
100
AcDbEntity
  8
ELEVATION
100
AcDbText
 10
435371.028
 20
614449.298
 30
4.428
 40
1.0
  1
4.428
 11
435371.028
 21
614449.798
 31
4.428
100
AcDbAttribute
  2
ELEVATION
 70
     0
 74
     2
280
     0
 71
     1
 72
     0
 11
435371.028
 21
614449.798
 31
4.428
  0
SEQEND
  5
209
330
9C
100
AcDbEntity
  8
Points
  6
Continuous
  0
INSERT
  5
A0
330
1F
100
AcDbEntity
  8
Points
  6
Continuous
100
AcDbBlockReference
 66
     1
  2
Point
 10
435337.91
 20
614506.352
 30
4.679
  0
ATTRIB
  5
A1
330
A0
100
AcDbEntity
  8
POINT_NUMBER
100
AcDbText
 10
435337.91
 20
614503.852
 30
4.679
 40
1.0
  1
20240716 009
 11
435337.91
 21
614504.352
 31
4.679
100
AcDbAttribute
  2
POINT_NUMBER
 70
     0
 74
     2
280
     0
 71
     1
 72
     0
 11
435337.91
 21
614504.352
 31
4.679
  0
ATTRIB
  5
A2
330
A0
100
AcDbEntity
  8
DESCRIPTION
100
AcDbText
 10
435337.91
 20
614505.852
 30
4.679
 40
1.0
  1
GONGULEID
 11
435337.91
 21
614506.352
 31
4.679
100
AcDbAttribute
  2
DESCRIPTION
 70
     0
 74
     2
280
     0
 71
     1
 72
     0
 11
435337.91
 21
614506.352
 31
4.679
  0
ATTRIB
  5
A3
330
A0
100
AcDbEntity
  8
ELEVATION
100
AcDbText
 10
435337.91
 20
614507.852
 30
4.679
 40
1.0
  1
4.679
 11
435337.91
 21
614508.352
 31
4.679
100
AcDbAttribute
  2
ELEVATION
 70
     0
 74
     2
280
     0
 71
     1
 72
     0
 11
435337.91
 21
614508.352
 31
4.679
  0
SEQEND
  5
20A
330
A0
100
AcDbEntity
  8
Points
  6
Continuous
  0
INSERT
  5
A4
330
1F
100
AcDbEntity
  8
Points
  6
Continuous
100
AcDbBlockReference
 66
     1
  2
Point
 10
435317.956
 20
614590.254
 30
3.42
  0
ATTRIB
  5
A5
330
A4
100
AcDbEntity
  8
POINT_NUMBER
100
AcDbText
 10
435317.956
 20
614587.754
 30
3.42
 40
1.0
  1
20240716 010
 11
435317.956
 21
614588.254
 31
3.42
100
AcDbAttribute
  2
POINT_NUMBER
 70
     0
 74
     2
280
     0
 71
     1
 72
     0
 11
435317.956
 21
614588.254
 31
3.42
  0
ATTRIB
  5
A6
330
A4
100
AcDbEntity
  8
DESCRIPTION
100
AcDbText
 10
435317.956
 20
614589.754
 30
3.42
 40
1.0
  1
GONGULEID
 11
435317.956
 21
614590.254
 31
3.42
100
AcDbAttribute
  2
DESCRIPTION
 70
     0
 74
     2
280
     0
 71
     1
 72
     0
 11
435317.956
 21
614590.254
 31
3.42
  0
ATTRIB
  5
A7
330
A4
100
AcDbEntity
  8
ELEVATION
100
AcDbText
 10
435317.956
 20
614591.754
 30
3.42
 40
1.0
  1
3.42
 11
435317.956
 21
614592.254
 31
3.42
100
AcDbAttribute
  2
ELEVATION
 70
     0
 74
     2
280
     0
 71
     1
 72
     0
 11
435317.956
 21
614592.254
 31
3.42
  0
SEQEND
  5
20B
330
A4
100
AcDbEntity
  8
Points
  6
Continuous
  0
INSERT
  5
A8
330
1F
100
AcDbEntity
  8
Points
  6
Continuous
100
AcDbBlockReference
 66
     1
  2
Point
 10
435291.468
 20
614614.733
 30
3.079
  0
ATTRIB
  5
A9
330
A8
100
AcDbEntity
  8
POINT_NUMBER
100
AcDbText
 10
435291.468
 20
614612.233
 30
3.079
 40
1.0
  1
20240716 011
 11
435291.468
 21
614612.733
 31
3.079
100
AcDbAttribute
  2
POINT_NUMBER
 70
     0
 74
     2
280
     0
 71
     1
 72
     0
 11
435291.468
 21
614612.733
 31
3.079
  0
ATTRIB
  5
AA
330
A8
100
AcDbEntity
  8
DESCRIPTION
100
AcDbText
 10
435291.468
 20
614614.233
 30
3.079
 40
1.0
  1
GONGULEID
 11
435291.468
 21
614614.733
 31
3.079
100
AcDbAttribute
  2
DESCRIPTION
 70
     0
 74
     2
280
     0
 71
     1
 72
     0
 11
435291.468
 21
614614.733
 31
3.079
  0
ATTRIB
  5
AB
330
A8
100
AcDbEntity
  8
ELEVATION
100
AcDbText
 10
435291.468
 20
614616.233
 30
3.079
 40
1.0
  1
3.079
 11
435291.468
 21
614616.733
 31
3.079
100
AcDbAttribute
  2
ELEVATION
 70
     0
 74
     2
280
     0
 71
     1
 72
     0
 11
435291.468
 21
614616.733
 31
3.079
  0
SEQEND
  5
20C
330
A8
100
AcDbEntity
  8
Points
  6
Continuous
  0
INSERT
  5
AC
330
1F
100
AcDbEntity
  8
Points
  6
Continuous
100
AcDbBlockReference
 66
     1
  2
Point
 10
435254.811
 20
614616.584
 30
3.13
  0
ATTRIB
  5
AD
330
AC
100
AcDbEntity
  8
POINT_NUMBER
100
AcDbText
 10
435254.811
 20
614614.084
 30
3.13
 40
1.0
  1
20240716 012
 11
435254.811
 21
614614.584
 31
3.13
100
AcDbAttribute
  2
POINT_NUMBER
 70
     0
 74
     2
280
     0
 71
     1
 72
     0
 11
435254.811
 21
614614.584
 31
3.13
  0
ATTRIB
  5
AE
330
AC
100
AcDbEntity
  8
DESCRIPTION
100
AcDbText
 10
435254.811
 20
614616.084
 30
3.13
 40
1.0
  1
GONGULEID
 11
435254.811
 21
614616.584
 31
3.13
100
AcDbAttribute
  2
DESCRIPTION
 70
     0
 74
     2
280
     0
 71
     1
 72
     0
 11
435254.811
 21
614616.584
 31
3.13
  0
ATTRIB
  5
AF
330
AC
100
AcDbEntity
  8
ELEVATION
100
AcDbText
 10
435254.811
 20
614618.084
 30
3.13
 40
1.0
  1
3.13
 11
435254.811
 21
614618.584
 31
3.13
100
AcDbAttribute
  2
ELEVATION
 70
     0
 74
     2
280
     0
 71
     1
 72
     0
 11
435254.811
 21
614618.584
 31
3.13
  0
SEQEND
  5
20D
330
AC
100
AcDbEntity
  8
Points
  6
Continuous
  0
INSERT
  5
B0
330
1F
100
AcDbEntity
  8
Points
  6
Continuous
100
AcDbBlockReference
 66
     1
  2
Point
 10
435206.401
 20
614600.804
 30
1.921
  0
ATTRIB
  5
B1
330
B0
100
AcDbEntity
  8
POINT_NUMBER
100
AcDbText
 10
435206.401
 20
614598.304
 30
1.921
 40
1.0
  1
20240716 013
 11
435206.401
 21
614598.804
 31
1.921
100
AcDbAttribute
  2
POINT_NUMBER
 70
     0
 74
     2
280
     0
 71
     1
 72
     0
 11
435206.401
 21
614598.804
 31
1.921
  0
ATTRIB
  5
B2
330
B0
100
AcDbEntity
  8
DESCRIPTION
100
AcDbText
 10
435206.401
 20
614600.304
 30
1.921
 40
1.0
  1
GONGULEID
 11
435206.401
 21
614600.804
 31
1.921
100
AcDbAttribute
  2
DESCRIPTION
 70
     0
 74
     2
280
     0
 71
     1
 72
     0
 11
435206.401
 21
614600.804
 31
1.921
  0
ATTRIB
  5
B3
330
B0
100
AcDbEntity
  8
ELEVATION
100
AcDbText
 10
435206.401
 20
614602.304
 30
1.921
 40
1.0
  1
1.921
 11
435206.401
 21
614602.804
 31
1.921
100
AcDbAttribute
  2
ELEVATION
 70
     0
 74
     2
280
     0
 71
     1
 72
     0
 11
435206.401
 21
614602.804
 31
1.921
  0
SEQEND
  5
20E
330
B0
100
AcDbEntity
  8
Points
  6
Continuous
  0
INSERT
  5
B4
330
1F
100
AcDbEntity
  8
Points
  6
Continuous
100
AcDbBlockReference
 66
     1
  2
Point
 10
435159.575
 20
614593.803
 30
1.952
  0
ATTRIB
  5
B5
330
B4
100
AcDbEntity
  8
POINT_NUMBER
100
AcDbText
 10
435159.575
 20
614591.303
 30
1.952
 40
1.0
  1
20240716 014
 11
435159.575
 21
614591.803
 31
1.952
100
AcDbAttribute
  2
POINT_NUMBER
 70
     0
 74
     2
280
     0
 71
     1
 72
     0
 11
435159.575
 21
614591.803
 31
1.952
  0
ATTRIB
  5
B6
330
B4
100
AcDbEntity
  8
DESCRIPTION
100
AcDbText
 10
435159.575
 20
614593.303
 30
1.952
 40
1.0
  1
GONGULEID
 11
435159.575
 21
614593.803
 31
1.952
100
AcDbAttribute
  2
DESCRIPTION
 70
     0
 74
     2
280
     0
 71
     1
 72
     0
 11
435159.575
 21
614593.803
 31
1.952
  0
ATTRIB
  5
B7
330
B4
100
AcDbEntity
  8
ELEVATION
100
AcDbText
 10
435159.575
 20
614595.303
 30
1.952
 40
1.0
  1
1.952
 11
435159.575
 21
614595.803
 31
1.952
100
AcDbAttribute
  2
ELEVATION
 70
     0
 74
     2
280
     0
 71
     1
 72
     0
 11
435159.575
 21
614595.803
 31
1.952
  0
SEQEND
  5
20F
330
B4
100
AcDbEntity
  8
Points
  6
Continuous
  0
INSERT
  5
B8
330
1F
100
AcDbEntity
  8
Points
  6
Continuous
100
AcDbBlockReference
 66
     1
  2
Point
 10
435128.295
 20
614590.05
 30
1.89
  0
ATTRIB
  5
B9
330
B8
100
AcDbEntity
  8
POINT_NUMBER
100
AcDbText
 10
435128.295
 20
614587.55
 30
1.89
 40
1.0
  1
20240716 015
 11
435128.295
 21
614588.05
 31
1.89
100
AcDbAttribute
  2
POINT_NUMBER
 70
     0
 74
     2
280
     0
 71
     1
 72
     0
 11
435128.295
 21
614588.05
 31
1.89
  0
ATTRIB
  5
BA
330
B8
100
AcDbEntity
  8
DESCRIPTION
100
AcDbText
 10
435128.295
 20
614589.55
 30
1.89
 40
1.0
  1
GONGULEID GATNAMOT
 11
435128.295
 21
614590.05
 31
1.89
100
AcDbAttribute
  2
DESCRIPTION
 70
     0
 74
     2
280
     0
 71
     1
 72
     0
 11
435128.295
 21
614590.05
 31
1.89
  0
ATTRIB
  5
BB
330
B8
100
AcDbEntity
  8
ELEVATION
100
AcDbText
 10
435128.295
 20
614591.55
 30
1.89
 40
1.0
  1
1.89
 11
435128.295
 21
614592.05
 31
1.89
100
AcDbAttribute
  2
ELEVATION
 70
     0
 74
     2
280
     0
 71
     1
 72
     0
 11
435128.295
 21
614592.05
 31
1.89
  0
SEQEND
  5
210
330
B8
100
AcDbEntity
  8
Points
  6
Continuous
  0
INSERT
  5
BC
330
1F
100
AcDbEntity
  8
Points
  6
Continuous
100
AcDbBlockReference
 66
     1
  2
Point
 10
435082.839
 20
614596.089
 30
5.101
  0
ATTRIB
  5
BD
330
BC
100
AcDbEntity
  8
POINT_NUMBER
100
AcDbText
 10
435082.839
 20
614593.589
 30
5.101
 40
1.0
  1
20240716 016
 11
435082.839
 21
614594.089
 31
5.101
100
AcDbAttribute
  2
POINT_NUMBER
 70
     0
 74
     2
280
     0
 71
     1
 72
     0
 11
435082.839
 21
614594.089
 31
5.101
  0
ATTRIB
  5
BE
330
BC
100
AcDbEntity
  8
DESCRIPTION
100
AcDbText
 10
435082.839
 20
614595.589
 30
5.101
 40
1.0
  1
GONGULEID
 11
435082.839
 21
614596.089
 31
5.101
100
AcDbAttribute
  2
DESCRIPTION
 70
     0
 74
     2
280
     0
 71
     1
 72
     0
 11
435082.839
 21
614596.089
 31
5.101
  0
ATTRIB
  5
BF
330
BC
100
AcDbEntity
  8
ELEVATION
100
AcDbText
 10
435082.839
 20
614597.589
 30
5.101
 40
1.0
  1
5.101
 11
435082.839
 21
614598.089
 31
5.101
100
AcDbAttribute
  2
ELEVATION
 70
     0
 74
     2
280
     0
 71
     1
 72
     0
 11
435082.839
 21
614598.089
 31
5.101
  0
SEQEND
  5
211
330
BC
100
AcDbEntity
  8
Points
  6
Continuous
  0
INSERT
  5
C0
330
1F
100
AcDbEntity
  8
Points
  6
Continuous
100
AcDbBlockReference
 66
     1
  2
Point
 10
435052.784
 20
614604.026
 30
3.807
  0
ATTRIB
  5
C1
330
C0
100
AcDbEntity
  8
POINT_NUMBER
100
AcDbText
 10
435052.784
 20
614601.526
 30
3.807
 40
1.0
  1
20240716 017
 11
435052.784
 21
614602.026
 31
3.807
100
AcDbAttribute
  2
POINT_NUMBER
 70
     0
 74
     2
280
     0
 71
     1
 72
     0
 11
435052.784
 21
614602.026
 31
3.807
  0
ATTRIB
  5
C2
330
C0
100
AcDbEntity
  8
DESCRIPTION
100
AcDbText
 10
435052.784
 20
614603.526
 30
3.807
 40
1.0
  1
GONGULEID
 11
435052.784
 21
614604.026
 31
3.807
100
AcDbAttribute
  2
DESCRIPTION
 70
     0
 74
     2
280
     0
 71
     1
 72
     0
 11
435052.784
 21
614604.026
 31
3.807
  0
ATTRIB
  5
C3
330
C0
100
AcDbEntity
  8
ELEVATION
100
AcDbText
 10
435052.784
 20
614605.526
 30
3.807
 40
1.0
  1
3.807
 11
435052.784
 21
614606.026
 31
3.807
100
AcDbAttribute
  2
ELEVATION
 70
     0
 74
     2
280
     0
 71
     1
 72
     0
 11
435052.784
 21
614606.026
 31
3.807
  0
SEQEND
  5
212
330
C0
100
AcDbEntity
  8
Points
  6
Continuous
  0
INSERT
  5
C4
330
1F
100
AcDbEntity
  8
Points
  6
Continuous
100
AcDbBlockReference
 66
     1
  2
Point
 10
434992.559
 20
614597.335
 30
4.044
  0
ATTRIB
  5
C5
330
C4
100
AcDbEntity
  8
POINT_NUMBER
100
AcDbText
 10
434992.559
 20
614594.835
 30
4.044
 40
1.0
  1
20240716 018
 11
434992.559
 21
614595.335
 31
4.044
100
AcDbAttribute
  2
POINT_NUMBER
 70
     0
 74
     2
280
     0
 71
     1
 72
     0
 11
434992.559
 21
614595.335
 31
4.044
  0
ATTRIB
  5
C6
330
C4
100
AcDbEntity
  8
DESCRIPTION
100
AcDbText
 10
434992.559
 20
614596.835
 30
4.044
 40
1.0
  1
GONGULEID
 11
434992.559
 21
614597.335
 31
4.044
100
AcDbAttribute
  2
DESCRIPTION
 70
     0
 74
     2
280
     0
 71
     1
 72
     0
 11
434992.559
 21
614597.335
 31
4.044
  0
ATTRIB
  5
C7
330
C4
100
AcDbEntity
  8
ELEVATION
100
AcDbText
 10
434992.559
 20
614598.835
 30
4.044
 40
1.0
  1
4.044
 11
434992.559
 21
614599.335
 31
4.044
100
AcDbAttribute
  2
ELEVATION
 70
     0
 74
     2
280
     0
 71
     1
 72
     0
 11
434992.559
 21
614599.335
 31
4.044
  0
SEQEND
  5
213
330
C4
100
AcDbEntity
  8
Points
  6
Continuous
  0
INSERT
  5
C8
330
1F
100
AcDbEntity
  8
Points
  6
Continuous
100
AcDbBlockReference
 66
     1
  2
Point
 10
434952.788
 20
614593.274
 30
4.41
  0
ATTRIB
  5
C9
330
C8
100
AcDbEntity
  8
POINT_NUMBER
100
AcDbText
 10
434952.788
 20
614590.774
 30
4.41
 40
1.0
  1
20240716 019
 11
434952.788
 21
614591.274
 31
4.41
100
AcDbAttribute
  2
POINT_NUMBER
 70
     0
 74
     2
280
     0
 71
     1
 72
     0
 11
434952.788
 21
614591.274
 31
4.41
  0
ATTRIB
  5
CA
330
C8
100
AcDbEntity
  8
DESCRIPTION
100
AcDbText
 10
434952.788
 20
614592.774
 30
4.41
 40
1.0
  1
GONGULEID
 11
434952.788
 21
614593.274
 31
4.41
100
AcDbAttribute
  2
DESCRIPTION
 70
     0
 74
     2
280
     0
 71
     1
 72
     0
 11
434952.788
 21
614593.274
 31
4.41
  0
ATTRIB
  5
CB
330
C8
100
AcDbEntity
  8
ELEVATION
100
AcDbText
 10
434952.788
 20
614594.774
 30
4.41
 40
1.0
  1
4.41
 11
434952.788
 21
614595.274
 31
4.41
100
AcDbAttribute
  2
ELEVATION
 70
     0
 74
     2
280
     0
 71
     1
 72
     0
 11
434952.788
 21
614595.274
 31
4.41
  0
SEQEND
  5
214
330
C8
100
AcDbEntity
  8
Points
  6
Continuous
  0
INSERT
  5
CC
330
1F
100
AcDbEntity
  8
Points
  6
Continuous
100
AcDbBlockReference
 66
     1
  2
Point
 10
434937.891
 20
614570.475
 30
4.911
  0
ATTRIB
  5
CD
330
CC
100
AcDbEntity
  8
POINT_NUMBER
100
AcDbText
 10
434937.891
 20
614567.975
 30
4.911
 40
1.0
  1
20240716 020
 11
434937.891
 21
614568.475
 31
4.911
100
AcDbAttribute
  2
POINT_NUMBER
 70
     0
 74
     2
280
     0
 71
     1
 72
     0
 11
434937.891
 21
614568.475
 31
4.911
  0
ATTRIB
  5
CE
330
CC
100
AcDbEntity
  8
DESCRIPTION
100
AcDbText
 10
434937.891
 20
614569.975
 30
4.911
 40
1.0
  1
GONGULEID
 11
434937.891
 21
614570.475
 31
4.911
100
AcDbAttribute
  2
DESCRIPTION
 70
     0
 74
     2
280
     0
 71
     1
 72
     0
 11
434937.891
 21
614570.475
 31
4.911
  0
ATTRIB
  5
CF
330
CC
100
AcDbEntity
  8
ELEVATION
100
AcDbText
 10
434937.891
 20
614571.975
 30
4.911
 40
1.0
  1
4.911
 11
434937.891
 21
614572.475
 31
4.911
100
AcDbAttribute
  2
ELEVATION
 70
     0
 74
     2
280
     0
 71
     1
 72
     0
 11
434937.891
 21
614572.475
 31
4.911
  0
SEQEND
  5
215
330
CC
100
AcDbEntity
  8
Points
  6
Continuous
  0
INSERT
  5
D0
330
1F
100
AcDbEntity
  8
Points
  6
Continuous
100
AcDbBlockReference
 66
     1
  2
Point
 10
435015.612
 20
614528.76
 30
6.766
  0
ATTRIB
  5
D1
330
D0
100
AcDbEntity
  8
POINT_NUMBER
100
AcDbText
 10
435015.612
 20
614526.26
 30
6.766
 40
1.0
  1
20240716 021
 11
435015.612
 21
614526.76
 31
6.766
100
AcDbAttribute
  2
POINT_NUMBER
 70
     0
 74
     2
280
     0
 71
     1
 72
     0
 11
435015.612
 21
614526.76
 31
6.766
  0
ATTRIB
  5
D2
330
D0
100
AcDbEntity
  8
DESCRIPTION
100
AcDbText
 10
435015.612
 20
614528.26
 30
6.766
 40
1.0
  1
GONGULEID
 11
435015.612
 21
614528.76
 31
6.766
100
AcDbAttribute
  2
DESCRIPTION
 70
     0
 74
     2
280
     0
 71
     1
 72
     0
 11
435015.612
 21
614528.76
 31
6.766
  0
ATTRIB
  5
D3
330
D0
100
AcDbEntity
  8
ELEVATION
100
AcDbText
 10
435015.612
 20
614530.26
 30
6.766
 40
1.0
  1
6.766
 11
435015.612
 21
614530.76
 31
6.766
100
AcDbAttribute
  2
ELEVATION
 70
     0
 74
     2
280
     0
 71
     1
 72
     0
 11
435015.612
 21
614530.76
 31
6.766
  0
SEQEND
  5
216
330
D0
100
AcDbEntity
  8
Points
  6
Continuous
  0
INSERT
  5
D4
330
1F
100
AcDbEntity
  8
Points
  6
Continuous
100
AcDbBlockReference
 66
     1
  2
Point
 10
435037.409
 20
614509.849
 30
7.636
  0
ATTRIB
  5
D5
330
D4
100
AcDbEntity
  8
POINT_NUMBER
100
AcDbText
 10
435037.409
 20
614507.349
 30
7.636
 40
1.0
  1
20240716 022
 11
435037.409
 21
614507.849
 31
7.636
100
AcDbAttribute
  2
POINT_NUMBER
 70
     0
 74
     2
280
     0
 71
     1
 72
     0
 11
435037.409
 21
614507.849
 31
7.636
  0
ATTRIB
  5
D6
330
D4
100
AcDbEntity
  8
DESCRIPTION
100
AcDbText
 10
435037.409
 20
614509.349
 30
7.636
 40
1.0
  1
GONGULEID
 11
435037.409
 21
614509.849
 31
7.636
100
AcDbAttribute
  2
DESCRIPTION
 70
     0
 74
     2
280
     0
 71
     1
 72
     0
 11
435037.409
 21
614509.849
 31
7.636
  0
ATTRIB
  5
D7
330
D4
100
AcDbEntity
  8
ELEVATION
100
AcDbText
 10
435037.409
 20
614511.349
 30
7.636
 40
1.0
  1
7.636
 11
435037.409
 21
614511.849
 31
7.636
100
AcDbAttribute
  2
ELEVATION
 70
     0
 74
     2
280
     0
 71
     1
 72
     0
 11
435037.409
 21
614511.849
 31
7.636
  0
SEQEND
  5
217
330
D4
100
AcDbEntity
  8
Points
  6
Continuous
  0
INSERT
  5
D8
330
1F
100
AcDbEntity
  8
Points
  6
Continuous
100
AcDbBlockReference
 66
     1
  2
Point
 10
435041.651
 20
614491.266
 30
7.285
  0
ATTRIB
  5
D9
330
D8
100
AcDbEntity
  8
POINT_NUMBER
100
AcDbText
 10
435041.651
 20
614488.766
 30
7.285
 40
1.0
  1
20240716 023
 11
435041.651
 21
614489.266
 31
7.285
100
AcDbAttribute
  2
POINT_NUMBER
 70
     0
 74
     2
280
     0
 71
     1
 72
     0
 11
435041.651
 21
614489.266
 31
7.285
  0
ATTRIB
  5
DA
330
D8
100
AcDbEntity
  8
DESCRIPTION
100
AcDbText
 10
435041.651
 20
614490.766
 30
7.285
 40
1.0
  1
GONGULEID
 11
435041.651
 21
614491.266
 31
7.285
100
AcDbAttribute
  2
DESCRIPTION
 70
     0
 74
     2
280
     0
 71
     1
 72
     0
 11
435041.651
 21
614491.266
 31
7.285
  0
ATTRIB
  5
DB
330
D8
100
AcDbEntity
  8
ELEVATION
100
AcDbText
 10
435041.651
 20
614492.766
 30
7.285
 40
1.0
  1
7.285
 11
435041.651
 21
614493.266
 31
7.285
100
AcDbAttribute
  2
ELEVATION
 70
     0
 74
     2
280
     0
 71
     1
 72
     0
 11
435041.651
 21
614493.266
 31
7.285
  0
SEQEND
  5
218
330
D8
100
AcDbEntity
  8
Points
  6
Continuous
  0
INSERT
  5
DC
330
1F
100
AcDbEntity
  8
Points
  6
Continuous
100
AcDbBlockReference
 66
     1
  2
Point
 10
435068.752
 20
614477.746
 30
6.201
  0
ATTRIB
  5
DD
330
DC
100
AcDbEntity
  8
POINT_NUMBER
100
AcDbText
 10
435068.752
 20
614475.246
 30
6.201
 40
1.0
  1
20240716 024
 11
435068.752
 21
614475.746
 31
6.201
100
AcDbAttribute
  2
POINT_NUMBER
 70
     0
 74
     2
280
     0
 71
     1
 72
     0
 11
435068.752
 21
614475.746
 31
6.201
  0
ATTRIB
  5
DE
330
DC
100
AcDbEntity
  8
DESCRIPTION
100
AcDbText
 10
435068.752
 20
614477.246
 30
6.201
 40
1.0
  1
GONGULEID
 11
435068.752
 21
614477.746
 31
6.201
100
AcDbAttribute
  2
DESCRIPTION
 70
     0
 74
     2
280
     0
 71
     1
 72
     0
 11
435068.752
 21
614477.746
 31
6.201
  0
ATTRIB
  5
DF
330
DC
100
AcDbEntity
  8
ELEVATION
100
AcDbText
 10
435068.752
 20
614479.246
 30
6.201
 40
1.0
  1
6.201
 11
435068.752
 21
614479.746
 31
6.201
100
AcDbAttribute
  2
ELEVATION
 70
     0
 74
     2
280
     0
 71
     1
 72
     0
 11
435068.752
 21
614479.746
 31
6.201
  0
SEQEND
  5
219
330
DC
100
AcDbEntity
  8
Points
  6
Continuous
  0
INSERT
  5
E0
330
1F
100
AcDbEntity
  8
Points
  6
Continuous
100
AcDbBlockReference
 66
     1
  2
Point
 10
435079.944
 20
614496.763
 30
7.157
  0
ATTRIB
  5
E1
330
E0
100
AcDbEntity
  8
POINT_NUMBER
100
AcDbText
 10
435079.944
 20
614494.263
 30
7.157
 40
1.0
  1
20240716 025
 11
435079.944
 21
614494.763
 31
7.157
100
AcDbAttribute
  2
POINT_NUMBER
 70
     0
 74
     2
280
     0
 71
     1
 72
     0
 11
435079.944
 21
614494.763
 31
7.157
  0
ATTRIB
  5
E2
330
E0
100
AcDbEntity
  8
DESCRIPTION
100
AcDbText
 10
435079.944
 20
614496.263
 30
7.157
 40
1.0
  1
GONGULEID
 11
435079.944
 21
614496.763
 31
7.157
100
AcDbAttribute
  2
DESCRIPTION
 70
     0
 74
     2
280
     0
 71
     1
 72
     0
 11
435079.944
 21
614496.763
 31
7.157
  0
ATTRIB
  5
E3
330
E0
100
AcDbEntity
  8
ELEVATION
100
AcDbText
 10
435079.944
 20
614498.263
 30
7.157
 40
1.0
  1
7.157
 11
435079.944
 21
614498.763
 31
7.157
100
AcDbAttribute
  2
ELEVATION
 70
     0
 74
     2
280
     0
 71
     1
 72
     0
 11
435079.944
 21
614498.763
 31
7.157
  0
SEQEND
  5
21A
330
E0
100
AcDbEntity
  8
Points
  6
Continuous
  0
INSERT
  5
E4
330
1F
100
AcDbEntity
  8
Points
  6
Continuous
100
AcDbBlockReference
 66
     1
  2
Point
 10
435089.87
 20
614493.718
 30
5.92
  0
ATTRIB
  5
E5
330
E4
100
AcDbEntity
  8
POINT_NUMBER
100
AcDbText
 10
435089.87
 20
614491.218
 30
5.92
 40
1.0
  1
20240716 026
 11
435089.87
 21
614491.718
 31
5.92
100
AcDbAttribute
  2
POINT_NUMBER
 70
     0
 74
     2
280
     0
 71
     1
 72
     0
 11
435089.87
 21
614491.718
 31
5.92
  0
ATTRIB
  5
E6
330
E4
100
AcDbEntity
  8
DESCRIPTION
100
AcDbText
 10
435089.87
 20
614493.218
 30
5.92
 40
1.0
  1
GONGULEID
 11
435089.87
 21
614493.718
 31
5.92
100
AcDbAttribute
  2
DESCRIPTION
 70
     0
 74
     2
280
     0
 71
     1
 72
     0
 11
435089.87
 21
614493.718
 31
5.92
  0
ATTRIB
  5
E7
330
E4
100
AcDbEntity
  8
ELEVATION
100
AcDbText
 10
435089.87
 20
614495.218
 30
5.92
 40
1.0
  1
5.92
 11
435089.87
 21
614495.718
 31
5.92
100
AcDbAttribute
  2
ELEVATION
 70
     0
 74
     2
280
     0
 71
     1
 72
     0
 11
435089.87
 21
614495.718
 31
5.92
  0
SEQEND
  5
21B
330
E4
100
AcDbEntity
  8
Points
  6
Continuous
  0
INSERT
  5
E8
330
1F
100
AcDbEntity
  8
Points
  6
Continuous
100
AcDbBlockReference
 66
     1
  2
Point
 10
435119.317
 20
614494.874
 30
3.074
  0
ATTRIB
  5
E9
330
E8
100
AcDbEntity
  8
POINT_NUMBER
100
AcDbText
 10
435119.317
 20
614492.374
 30
3.074
 40
1.0
  1
20240716 027
 11
435119.317
 21
614492.874
 31
3.074
100
AcDbAttribute
  2
POINT_NUMBER
 70
     0
 74
     2
280
     0
 71
     1
 72
     0
 11
435119.317
 21
614492.874
 31
3.074
  0
ATTRIB
  5
EA
330
E8
100
AcDbEntity
  8
DESCRIPTION
100
AcDbText
 10
435119.317
 20
614494.374
 30
3.074
 40
1.0
  1
GONGULEID
 11
435119.317
 21
614494.874
 31
3.074
100
AcDbAttribute
  2
DESCRIPTION
 70
     0
 74
     2
280
     0
 71
     1
 72
     0
 11
435119.317
 21
614494.874
 31
3.074
  0
ATTRIB
  5
EB
330
E8
100
AcDbEntity
  8
ELEVATION
100
AcDbText
 10
435119.317
 20
614496.374
 30
3.074
 40
1.0
  1
3.074
 11
435119.317
 21
614496.874
 31
3.074
100
AcDbAttribute
  2
ELEVATION
 70
     0
 74
     2
280
     0
 71
     1
 72
     0
 11
435119.317
 21
614496.874
 31
3.074
  0
SEQEND
  5
21C
330
E8
100
AcDbEntity
  8
Points
  6
Continuous
  0
INSERT
  5
EC
330
1F
100
AcDbEntity
  8
Points
  6
Continuous
100
AcDbBlockReference
 66
     1
  2
Point
 10
435146.43
 20
614508.105
 30
2.01
  0
ATTRIB
  5
ED
330
EC
100
AcDbEntity
  8
POINT_NUMBER
100
AcDbText
 10
435146.43
 20
614505.605
 30
2.01
 40
1.0
  1
20240716 028
 11
435146.43
 21
614506.105
 31
2.01
100
AcDbAttribute
  2
POINT_NUMBER
 70
     0
 74
     2
280
     0
 71
     1
 72
     0
 11
435146.43
 21
614506.105
 31
2.01
  0
ATTRIB
  5
EE
330
EC
100
AcDbEntity
  8
DESCRIPTION
100
AcDbText
 10
435146.43
 20
614507.605
 30
2.01
 40
1.0
  1
GONGULEID GATNAMOT
 11
435146.43
 21
614508.105
 31
2.01
100
AcDbAttribute
  2
DESCRIPTION
 70
     0
 74
     2
280
     0
 71
     1
 72
     0
 11
435146.43
 21
614508.105
 31
2.01
  0
ATTRIB
  5
EF
330
EC
100
AcDbEntity
  8
ELEVATION
100
AcDbText
 10
435146.43
 20
614509.605
 30
2.01
 40
1.0
  1
2.01
 11
435146.43
 21
614510.105
 31
2.01
100
AcDbAttribute
  2
ELEVATION
 70
     0
 74
     2
280
     0
 71
     1
 72
     0
 11
435146.43
 21
614510.105
 31
2.01
  0
SEQEND
  5
21D
330
EC
100
AcDbEntity
  8
Points
  6
Continuous
  0
INSERT
  5
F0
330
1F
100
AcDbEntity
  8
Points
  6
Continuous
100
AcDbBlockReference
 66
     1
  2
Point
 10
435150.976
 20
614527.644
 30
2.178
  0
ATTRIB
  5
F1
330
F0
100
AcDbEntity
  8
POINT_NUMBER
100
AcDbText
 10
435150.976
 20
614525.144
 30
2.178
 40
1.0
  1
20240716 029
 11
435150.976
 21
614525.644
 31
2.178
100
AcDbAttribute
  2
POINT_NUMBER
 70
     0
 74
     2
280
     0
 71
     1
 72
     0
 11
435150.976
 21
614525.644
 31
2.178
  0
ATTRIB
  5
F2
330
F0
100
AcDbEntity
  8
DESCRIPTION
100
AcDbText
 10
435150.976
 20
614527.144
 30
2.178
 40
1.0
  1
GONGULEID
 11
435150.976
 21
614527.644
 31
2.178
100
AcDbAttribute
  2
DESCRIPTION
 70
     0
 74
     2
280
     0
 71
     1
 72
     0
 11
435150.976
 21
614527.644
 31
2.178
  0
ATTRIB
  5
F3
330
F0
100
AcDbEntity
  8
ELEVATION
100
AcDbText
 10
435150.976
 20
614529.144
 30
2.178
 40
1.0
  1
2.178
 11
435150.976
 21
614529.644
 31
2.178
100
AcDbAttribute
  2
ELEVATION
 70
     0
 74
     2
280
     0
 71
     1
 72
     0
 11
435150.976
 21
614529.644
 31
2.178
  0
SEQEND
  5
21E
330
F0
100
AcDbEntity
  8
Points
  6
Continuous
  0
INSERT
  5
F4
330
1F
100
AcDbEntity
  8
Points
  6
Continuous
100
AcDbBlockReference
 66
     1
  2
Point
 10
435151.177
 20
614538.186
 30
2.037
  0
ATTRIB
  5
F5
330
F4
100
AcDbEntity
  8
POINT_NUMBER
100
AcDbText
 10
435151.177
 20
614535.686
 30
2.037
 40
1.0
  1
20240716 030
 11
435151.177
 21
614536.186
 31
2.037
100
AcDbAttribute
  2
POINT_NUMBER
 70
     0
 74
     2
280
     0
 71
     1
 72
     0
 11
435151.177
 21
614536.186
 31
2.037
  0
ATTRIB
  5
F6
330
F4
100
AcDbEntity
  8
DESCRIPTION
100
AcDbText
 10
435151.177
 20
614537.686
 30
2.037
 40
1.0
  1
GONGULEID
 11
435151.177
 21
614538.186
 31
2.037
100
AcDbAttribute
  2
DESCRIPTION
 70
     0
 74
     2
280
     0
 71
     1
 72
     0
 11
435151.177
 21
614538.186
 31
2.037
  0
ATTRIB
  5
F7
330
F4
100
AcDbEntity
  8
ELEVATION
100
AcDbText
 10
435151.177
 20
614539.686
 30
2.037
 40
1.0
  1
2.037
 11
435151.177
 21
614540.186
 31
2.037
100
AcDbAttribute
  2
ELEVATION
 70
     0
 74
     2
280
     0
 71
     1
 72
     0
 11
435151.177
 21
614540.186
 31
2.037
  0
SEQEND
  5
21F
330
F4
100
AcDbEntity
  8
Points
  6
Continuous
  0
INSERT
  5
F8
330
1F
100
AcDbEntity
  8
Points
  6
Continuous
100
AcDbBlockReference
 66
     1
  2
Point
 10
435130.663
 20
614555.088
 30
2.025
  0
ATTRIB
  5
F9
330
F8
100
AcDbEntity
  8
POINT_NUMBER
100
AcDbText
 10
435130.663
 20
614552.588
 30
2.025
 40
1.0
  1
20240716 031
 11
435130.663
 21
614553.088
 31
2.025
100
AcDbAttribute
  2
POINT_NUMBER
 70
     0
 74
     2
280
     0
 71
     1
 72
     0
 11
435130.663
 21
614553.088
 31
2.025
  0
ATTRIB
  5
FA
330
F8
100
AcDbEntity
  8
DESCRIPTION
100
AcDbText
 10
435130.663
 20
614554.588
 30
2.025
 40
1.0
  1
GONGULEID
 11
435130.663
 21
614555.088
 31
2.025
100
AcDbAttribute
  2
DESCRIPTION
 70
     0
 74
     2
280
     0
 71
     1
 72
     0
 11
435130.663
 21
614555.088
 31
2.025
  0
ATTRIB
  5
FB
330
F8
100
AcDbEntity
  8
ELEVATION
100
AcDbText
 10
435130.663
 20
614556.588
 30
2.025
 40
1.0
  1
2.025
 11
435130.663
 21
614557.088
 31
2.025
100
AcDbAttribute
  2
ELEVATION
 70
     0
 74
     2
280
     0
 71
     1
 72
     0
 11
435130.663
 21
614557.088
 31
2.025
  0
SEQEND
  5
220
330
F8
100
AcDbEntity
  8
Points
  6
Continuous
  0
INSERT
  5
FC
330
1F
100
AcDbEntity
  8
Points
  6
Continuous
100
AcDbBlockReference
 66
     1
  2
Point
 10
435124.282
 20
614575.194
 30
2.151
  0
ATTRIB
  5
FD
330
FC
100
AcDbEntity
  8
POINT_NUMBER
100
AcDbText
 10
435124.282
 20
614572.694
 30
2.151
 40
1.0
  1
20240716 032
 11
435124.282
 21
614573.194
 31
2.151
100
AcDbAttribute
  2
POINT_NUMBER
 70
     0
 74
     2
280
     0
 71
     1
 72
     0
 11
435124.282
 21
614573.194
 31
2.151
  0
ATTRIB
  5
FE
330
FC
100
AcDbEntity
  8
DESCRIPTION
100
AcDbText
 10
435124.282
 20
614574.694
 30
2.151
 40
1.0
  1
GONGULEID
 11
435124.282
 21
614575.194
 31
2.151
100
AcDbAttribute
  2
DESCRIPTION
 70
     0
 74
     2
280
     0
 71
     1
 72
     0
 11
435124.282
 21
614575.194
 31
2.151
  0
ATTRIB
  5
FF
330
FC
100
AcDbEntity
  8
ELEVATION
100
AcDbText
 10
435124.282
 20
614576.694
 30
2.151
 40
1.0
  1
2.151
 11
435124.282
 21
614577.194
 31
2.151
100
AcDbAttribute
  2
ELEVATION
 70
     0
 74
     2
280
     0
 71
     1
 72
     0
 11
435124.282
 21
614577.194
 31
2.151
  0
SEQEND
  5
221
330
FC
100
AcDbEntity
  8
Points
  6
Continuous
  0
INSERT
  5
100
330
1F
100
AcDbEntity
  8
Points
  6
Continuous
100
AcDbBlockReference
 66
     1
  2
Point
 10
435181.379
 20
614495.686
 30
1.912
  0
ATTRIB
  5
101
330
100
100
AcDbEntity
  8
POINT_NUMBER
100
AcDbText
 10
435181.379
 20
614493.186
 30
1.912
 40
1.0
  1
20240716 033
 11
435181.379
 21
614493.686
 31
1.912
100
AcDbAttribute
  2
POINT_NUMBER
 70
     0
 74
     2
280
     0
 71
     1
 72
     0
 11
435181.379
 21
614493.686
 31
1.912
  0
ATTRIB
  5
102
330
100
100
AcDbEntity
  8
DESCRIPTION
100
AcDbText
 10
435181.379
 20
614495.186
 30
1.912
 40
1.0
  1
GONGULEID
 11
435181.379
 21
614495.686
 31
1.912
100
AcDbAttribute
  2
DESCRIPTION
 70
     0
 74
     2
280
     0
 71
     1
 72
     0
 11
435181.379
 21
614495.686
 31
1.912
  0
ATTRIB
  5
103
330
100
100
AcDbEntity
  8
ELEVATION
100
AcDbText
 10
435181.379
 20
614497.186
 30
1.912
 40
1.0
  1
1.912
 11
435181.379
 21
614497.686
 31
1.912
100
AcDbAttribute
  2
ELEVATION
 70
     0
 74
     2
280
     0
 71
     1
 72
     0
 11
435181.379
 21
614497.686
 31
1.912
  0
SEQEND
  5
222
330
100
100
AcDbEntity
  8
Points
  6
Continuous
  0
INSERT
  5
104
330
1F
100
AcDbEntity
  8
Points
  6
Continuous
100
AcDbBlockReference
 66
     1
  2
Point
 10
435197.664
 20
614486.235
 30
1.845
  0
ATTRIB
  5
105
330
104
100
AcDbEntity
  8
POINT_NUMBER
100
AcDbText
 10
435197.664
 20
614483.735
 30
1.845
 40
1.0
  1
20240716 034
 11
435197.664
 21
614484.235
 31
1.845
100
AcDbAttribute
  2
POINT_NUMBER
 70
     0
 74
     2
280
     0
 71
     1
 72
     0
 11
435197.664
 21
614484.235
 31
1.845
  0
ATTRIB
  5
106
330
104
100
AcDbEntity
  8
DESCRIPTION
100
AcDbText
 10
435197.664
 20
614485.735
 30
1.845
 40
1.0
  1
GONGULEID
 11
435197.664
 21
614486.235
 31
1.845
100
AcDbAttribute
  2
DESCRIPTION
 70
     0
 74
     2
280
     0
 71
     1
 72
     0
 11
435197.664
 21
614486.235
 31
1.845
  0
ATTRIB
  5
107
330
104
100
AcDbEntity
  8
ELEVATION
100
AcDbText
 10
435197.664
 20
614487.735
 30
1.845
 40
1.0
  1
1.845
 11
435197.664
 21
614488.235
 31
1.845
100
AcDbAttribute
  2
ELEVATION
 70
     0
 74
     2
280
     0
 71
     1
 72
     0
 11
435197.664
 21
614488.235
 31
1.845
  0
SEQEND
  5
223
330
104
100
AcDbEntity
  8
Points
  6
Continuous
  0
INSERT
  5
108
330
1F
100
AcDbEntity
  8
Points
  6
Continuous
100
AcDbBlockReference
 66
     1
  2
Point
 10
435232.033
 20
614436.131
 30
1.604
  0
ATTRIB
  5
109
330
108
100
AcDbEntity
  8
POINT_NUMBER
100
AcDbText
 10
435232.033
 20
614433.631
 30
1.604
 40
1.0
  1
20240716 035
 11
435232.033
 21
614434.131
 31
1.604
100
AcDbAttribute
  2
POINT_NUMBER
 70
     0
 74
     2
280
     0
 71
     1
 72
     0
 11
435232.033
 21
614434.131
 31
1.604
  0
ATTRIB
  5
10A
330
108
100
AcDbEntity
  8
DESCRIPTION
100
AcDbText
 10
435232.033
 20
614435.631
 30
1.604
 40
1.0
  1
GONGULEID
 11
435232.033
 21
614436.131
 31
1.604
100
AcDbAttribute
  2
DESCRIPTION
 70
     0
 74
     2
280
     0
 71
     1
 72
     0
 11
435232.033
 21
614436.131
 31
1.604
  0
ATTRIB
  5
10B
330
108
100
AcDbEntity
  8
ELEVATION
100
AcDbText
 10
435232.033
 20
614437.631
 30
1.604
 40
1.0
  1
1.604
 11
435232.033
 21
614438.131
 31
1.604
100
AcDbAttribute
  2
ELEVATION
 70
     0
 74
     2
280
     0
 71
     1
 72
     0
 11
435232.033
 21
614438.131
 31
1.604
  0
SEQEND
  5
224
330
108
100
AcDbEntity
  8
Points
  6
Continuous
  0
INSERT
  5
10C
330
1F
100
AcDbEntity
  8
Points
  6
Continuous
100
AcDbBlockReference
 66
     1
  2
Point
 10
435239.06
 20
614393.723
 30
1.533
  0
ATTRIB
  5
10D
330
10C
100
AcDbEntity
  8
POINT_NUMBER
100
AcDbText
 10
435239.06
 20
614391.223
 30
1.533
 40
1.0
  1
20240716 036
 11
435239.06
 21
614391.723
 31
1.533
100
AcDbAttribute
  2
POINT_NUMBER
 70
     0
 74
     2
280
     0
 71
     1
 72
     0
 11
435239.06
 21
614391.723
 31
1.533
  0
ATTRIB
  5
10E
330
10C
100
AcDbEntity
  8
DESCRIPTION
100
AcDbText
 10
435239.06
 20
614393.223
 30
1.533
 40
1.0
  1
GONGULEID
 11
435239.06
 21
614393.723
 31
1.533
100
AcDbAttribute
  2
DESCRIPTION
 70
     0
 74
     2
280
     0
 71
     1
 72
     0
 11
435239.06
 21
614393.723
 31
1.533
  0
ATTRIB
  5
10F
330
10C
100
AcDbEntity
  8
ELEVATION
100
AcDbText
 10
435239.06
 20
614395.223
 30
1.533
 40
1.0
  1
1.533
 11
435239.06
 21
614395.723
 31
1.533
100
AcDbAttribute
  2
ELEVATION
 70
     0
 74
     2
280
     0
 71
     1
 72
     0
 11
435239.06
 21
614395.723
 31
1.533
  0
SEQEND
  5
225
330
10C
100
AcDbEntity
  8
Points
  6
Continuous
  0
INSERT
  5
110
330
1F
100
AcDbEntity
  8
Points
  6
Continuous
100
AcDbBlockReference
 66
     1
  2
Point
 10
435236.127
 20
614364.192
 30
1.482
  0
ATTRIB
  5
111
330
110
100
AcDbEntity
  8
POINT_NUMBER
100
AcDbText
 10
435236.127
 20
614361.692
 30
1.482
 40
1.0
  1
20240716 037
 11
435236.127
 21
614362.192
 31
1.482
100
AcDbAttribute
  2
POINT_NUMBER
 70
     0
 74
     2
280
     0
 71
     1
 72
     0
 11
435236.127
 21
614362.192
 31
1.482
  0
ATTRIB
  5
112
330
110
100
AcDbEntity
  8
DESCRIPTION
100
AcDbText
 10
435236.127
 20
614363.692
 30
1.482
 40
1.0
  1
GONGULEID
 11
435236.127
 21
614364.192
 31
1.482
100
AcDbAttribute
  2
DESCRIPTION
 70
     0
 74
     2
280
     0
 71
     1
 72
     0
 11
435236.127
 21
614364.192
 31
1.482
  0
ATTRIB
  5
113
330
110
100
AcDbEntity
  8
ELEVATION
100
AcDbText
 10
435236.127
 20
614365.692
 30
1.482
 40
1.0
  1
1.482
 11
435236.127
 21
614366.192
 31
1.482
100
AcDbAttribute
  2
ELEVATION
 70
     0
 74
     2
280
     0
 71
     1
 72
     0
 11
435236.127
 21
614366.192
 31
1.482
  0
SEQEND
  5
226
330
110
100
AcDbEntity
  8
Points
  6
Continuous
  0
INSERT
  5
114
330
1F
100
AcDbEntity
  8
Points
  6
Continuous
100
AcDbBlockReference
 66
     1
  2
Point
 10
435228.65
 20
614344.57
 30
1.399
  0
ATTRIB
  5
115
330
114
100
AcDbEntity
  8
POINT_NUMBER
100
AcDbText
 10
435228.65
 20
614342.07
 30
1.399
 40
1.0
  1
20240716 038
 11
435228.65
 21
614342.57
 31
1.399
100
AcDbAttribute
  2
POINT_NUMBER
 70
     0
 74
     2
280
     0
 71
     1
 72
     0
 11
435228.65
 21
614342.57
 31
1.399
  0
ATTRIB
  5
116
330
114
100
AcDbEntity
  8
DESCRIPTION
100
AcDbText
 10
435228.65
 20
614344.07
 30
1.399
 40
1.0
  1
GONGULEID
 11
435228.65
 21
614344.57
 31
1.399
100
AcDbAttribute
  2
DESCRIPTION
 70
     0
 74
     2
280
     0
 71
     1
 72
     0
 11
435228.65
 21
614344.57
 31
1.399
  0
ATTRIB
  5
117
330
114
100
AcDbEntity
  8
ELEVATION
100
AcDbText
 10
435228.65
 20
614346.07
 30
1.399
 40
1.0
  1
1.399
 11
435228.65
 21
614346.57
 31
1.399
100
AcDbAttribute
  2
ELEVATION
 70
     0
 74
     2
280
     0
 71
     1
 72
     0
 11
435228.65
 21
614346.57
 31
1.399
  0
SEQEND
  5
227
330
114
100
AcDbEntity
  8
Points
  6
Continuous
  0
INSERT
  5
118
330
1F
100
AcDbEntity
  8
Points
  6
Continuous
100
AcDbBlockReference
 66
     1
  2
Point
 10
435211.077
 20
614322.215
 30
1.441
  0
ATTRIB
  5
119
330
118
100
AcDbEntity
  8
POINT_NUMBER
100
AcDbText
 10
435211.077
 20
614319.715
 30
1.441
 40
1.0
  1
20240716 039
 11
435211.077
 21
614320.215
 31
1.441
100
AcDbAttribute
  2
POINT_NUMBER
 70
     0
 74
     2
280
     0
 71
     1
 72
     0
 11
435211.077
 21
614320.215
 31
1.441
  0
ATTRIB
  5
11A
330
118
100
AcDbEntity
  8
DESCRIPTION
100
AcDbText
 10
435211.077
 20
614321.715
 30
1.441
 40
1.0
  1
GONGULEID
 11
435211.077
 21
614322.215
 31
1.441
100
AcDbAttribute
  2
DESCRIPTION
 70
     0
 74
     2
280
     0
 71
     1
 72
     0
 11
435211.077
 21
614322.215
 31
1.441
  0
ATTRIB
  5
11B
330
118
100
AcDbEntity
  8
ELEVATION
100
AcDbText
 10
435211.077
 20
614323.715
 30
1.441
 40
1.0
  1
1.441
 11
435211.077
 21
614324.215
 31
1.441
100
AcDbAttribute
  2
ELEVATION
 70
     0
 74
     2
280
     0
 71
     1
 72
     0
 11
435211.077
 21
614324.215
 31
1.441
  0
SEQEND
  5
228
330
118
100
AcDbEntity
  8
Points
  6
Continuous
  0
INSERT
  5
11C
330
1F
100
AcDbEntity
  8
Points
  6
Continuous
100
AcDbBlockReference
 66
     1
  2
Point
 10
435176.332
 20
614300.195
 30
1.527
  0
ATTRIB
  5
11D
330
11C
100
AcDbEntity
  8
POINT_NUMBER
100
AcDbText
 10
435176.332
 20
614297.695
 30
1.527
 40
1.0
  1
20240716 040
 11
435176.332
 21
614298.195
 31
1.527
100
AcDbAttribute
  2
POINT_NUMBER
 70
     0
 74
     2
280
     0
 71
     1
 72
     0
 11
435176.332
 21
614298.195
 31
1.527
  0
ATTRIB
  5
11E
330
11C
100
AcDbEntity
  8
DESCRIPTION
100
AcDbText
 10
435176.332
 20
614299.695
 30
1.527
 40
1.0
  1
GONGULEID
 11
435176.332
 21
614300.195
 31
1.527
100
AcDbAttribute
  2
DESCRIPTION
 70
     0
 74
     2
280
     0
 71
     1
 72
     0
 11
435176.332
 21
614300.195
 31
1.527
  0
ATTRIB
  5
11F
330
11C
100
AcDbEntity
  8
ELEVATION
100
AcDbText
 10
435176.332
 20
614301.695
 30
1.527
 40
1.0
  1
1.527
 11
435176.332
 21
614302.195
 31
1.527
100
AcDbAttribute
  2
ELEVATION
 70
     0
 74
     2
280
     0
 71
     1
 72
     0
 11
435176.332
 21
614302.195
 31
1.527
  0
SEQEND
  5
229
330
11C
100
AcDbEntity
  8
Points
  6
Continuous
  0
INSERT
  5
120
330
1F
100
AcDbEntity
  8
Points
  6
Continuous
100
AcDbBlockReference
 66
     1
  2
Point
 10
435164.494
 20
614282.618
 30
1.978
  0
ATTRIB
  5
121
330
120
100
AcDbEntity
  8
POINT_NUMBER
100
AcDbText
 10
435164.494
 20
614280.118
 30
1.978
 40
1.0
  1
20240716 041
 11
435164.494
 21
614280.618
 31
1.978
100
AcDbAttribute
  2
POINT_NUMBER
 70
     0
 74
     2
280
     0
 71
     1
 72
     0
 11
435164.494
 21
614280.618
 31
1.978
  0
ATTRIB
  5
122
330
120
100
AcDbEntity
  8
DESCRIPTION
100
AcDbText
 10
435164.494
 20
614282.118
 30
1.978
 40
1.0
  1
GONGULEID
 11
435164.494
 21
614282.618
 31
1.978
100
AcDbAttribute
  2
DESCRIPTION
 70
     0
 74
     2
280
     0
 71
     1
 72
     0
 11
435164.494
 21
614282.618
 31
1.978
  0
ATTRIB
  5
123
330
120
100
AcDbEntity
  8
ELEVATION
100
AcDbText
 10
435164.494
 20
614284.118
 30
1.978
 40
1.0
  1
1.978
 11
435164.494
 21
614284.618
 31
1.978
100
AcDbAttribute
  2
ELEVATION
 70
     0
 74
     2
280
     0
 71
     1
 72
     0
 11
435164.494
 21
614284.618
 31
1.978
  0
SEQEND
  5
22A
330
120
100
AcDbEntity
  8
Points
  6
Continuous
  0
INSERT
  5
124
330
1F
100
AcDbEntity
  8
Points
  6
Continuous
100
AcDbBlockReference
 66
     1
  2
Point
 10
435144.266
 20
614239.938
 30
1.656
  0
ATTRIB
  5
125
330
124
100
AcDbEntity
  8
POINT_NUMBER
100
AcDbText
 10
435144.266
 20
614237.438
 30
1.656
 40
1.0
  1
20240716 042
 11
435144.266
 21
614237.938
 31
1.656
100
AcDbAttribute
  2
POINT_NUMBER
 70
     0
 74
     2
280
     0
 71
     1
 72
     0
 11
435144.266
 21
614237.938
 31
1.656
  0
ATTRIB
  5
126
330
124
100
AcDbEntity
  8
DESCRIPTION
100
AcDbText
 10
435144.266
 20
614239.438
 30
1.656
 40
1.0
  1
GONGULEID
 11
435144.266
 21
614239.938
 31
1.656
100
AcDbAttribute
  2
DESCRIPTION
 70
     0
 74
     2
280
     0
 71
     1
 72
     0
 11
435144.266
 21
614239.938
 31
1.656
  0
ATTRIB
  5
127
330
124
100
AcDbEntity
  8
ELEVATION
100
AcDbText
 10
435144.266
 20
614241.438
 30
1.656
 40
1.0
  1
1.656
 11
435144.266
 21
614241.938
 31
1.656
100
AcDbAttribute
  2
ELEVATION
 70
     0
 74
     2
280
     0
 71
     1
 72
     0
 11
435144.266
 21
614241.938
 31
1.656
  0
SEQEND
  5
22B
330
124
100
AcDbEntity
  8
Points
  6
Continuous
  0
INSERT
  5
128
330
1F
100
AcDbEntity
  8
Points
  6
Continuous
100
AcDbBlockReference
 66
     1
  2
Point
 10
435140.564
 20
614233.342
 30
1.372
  0
ATTRIB
  5
129
330
128
100
AcDbEntity
  8
POINT_NUMBER
100
AcDbText
 10
435140.564
 20
614230.842
 30
1.372
 40
1.0
  1
20240716 043
 11
435140.564
 21
614231.342
 31
1.372
100
AcDbAttribute
  2
POINT_NUMBER
 70
     0
 74
     2
280
     0
 71
     1
 72
     0
 11
435140.564
 21
614231.342
 31
1.372
  0
ATTRIB
  5
12A
330
128
100
AcDbEntity
  8
DESCRIPTION
100
AcDbText
 10
435140.564
 20
614232.842
 30
1.372
 40
1.0
  1
GONGULEID
 11
435140.564
 21
614233.342
 31
1.372
100
AcDbAttribute
  2
DESCRIPTION
 70
     0
 74
     2
280
     0
 71
     1
 72
     0
 11
435140.564
 21
614233.342
 31
1.372
  0
ATTRIB
  5
12B
330
128
100
AcDbEntity
  8
ELEVATION
100
AcDbText
 10
435140.564
 20
614234.842
 30
1.372
 40
1.0
  1
1.372
 11
435140.564
 21
614235.342
 31
1.372
100
AcDbAttribute
  2
ELEVATION
 70
     0
 74
     2
280
     0
 71
     1
 72
     0
 11
435140.564
 21
614235.342
 31
1.372
  0
SEQEND
  5
22C
330
128
100
AcDbEntity
  8
Points
  6
Continuous
  0
INSERT
  5
12C
330
1F
100
AcDbEntity
  8
Points
  6
Continuous
100
AcDbBlockReference
 66
     1
  2
Point
 10
435140.609
 20
614227.104
 30
1.411
  0
ATTRIB
  5
12D
330
12C
100
AcDbEntity
  8
POINT_NUMBER
100
AcDbText
 10
435140.609
 20
614224.604
 30
1.411
 40
1.0
  1
20240716 044
 11
435140.609
 21
614225.104
 31
1.411
100
AcDbAttribute
  2
POINT_NUMBER
 70
     0
 74
     2
280
     0
 71
     1
 72
     0
 11
435140.609
 21
614225.104
 31
1.411
  0
ATTRIB
  5
12E
330
12C
100
AcDbEntity
  8
DESCRIPTION
100
AcDbText
 10
435140.609
 20
614226.604
 30
1.411
 40
1.0
  1
GONGULEID
 11
435140.609
 21
614227.104
 31
1.411
100
AcDbAttribute
  2
DESCRIPTION
 70
     0
 74
     2
280
     0
 71
     1
 72
     0
 11
435140.609
 21
614227.104
 31
1.411
  0
ATTRIB
  5
12F
330
12C
100
AcDbEntity
  8
ELEVATION
100
AcDbText
 10
435140.609
 20
614228.604
 30
1.411
 40
1.0
  1
1.411
 11
435140.609
 21
614229.104
 31
1.411
100
AcDbAttribute
  2
ELEVATION
 70
     0
 74
     2
280
     0
 71
     1
 72
     0
 11
435140.609
 21
614229.104
 31
1.411
  0
SEQEND
  5
22D
330
12C
100
AcDbEntity
  8
Points
  6
Continuous
  0
INSERT
  5
130
330
1F
100
AcDbEntity
  8
Points
  6
Continuous
100
AcDbBlockReference
 66
     1
  2
Point
 10
435151.105
 20
614218.759
 30
1.916
  0
ATTRIB
  5
131
330
130
100
AcDbEntity
  8
POINT_NUMBER
100
AcDbText
 10
435151.105
 20
614216.259
 30
1.916
 40
1.0
  1
20240716 045
 11
435151.105
 21
614216.759
 31
1.916
100
AcDbAttribute
  2
POINT_NUMBER
 70
     0
 74
     2
280
     0
 71
     1
 72
     0
 11
435151.105
 21
614216.759
 31
1.916
  0
ATTRIB
  5
132
330
130
100
AcDbEntity
  8
DESCRIPTION
100
AcDbText
 10
435151.105
 20
614218.259
 30
1.916
 40
1.0
  1
GONGULEID
 11
435151.105
 21
614218.759
 31
1.916
100
AcDbAttribute
  2
DESCRIPTION
 70
     0
 74
     2
280
     0
 71
     1
 72
     0
 11
435151.105
 21
614218.759
 31
1.916
  0
ATTRIB
  5
133
330
130
100
AcDbEntity
  8
ELEVATION
100
AcDbText
 10
435151.105
 20
614220.259
 30
1.916
 40
1.0
  1
1.916
 11
435151.105
 21
614220.759
 31
1.916
100
AcDbAttribute
  2
ELEVATION
 70
     0
 74
     2
280
     0
 71
     1
 72
     0
 11
435151.105
 21
614220.759
 31
1.916
  0
SEQEND
  5
22E
330
130
100
AcDbEntity
  8
Points
  6
Continuous
  0
INSERT
  5
134
330
1F
100
AcDbEntity
  8
Points
  6
Continuous
100
AcDbBlockReference
 66
     1
  2
Point
 10
435173.833
 20
614219.092
 30
2.02
  0
ATTRIB
  5
135
330
134
100
AcDbEntity
  8
POINT_NUMBER
100
AcDbText
 10
435173.833
 20
614216.592
 30
2.02
 40
1.0
  1
20240716 046
 11
435173.833
 21
614217.092
 31
2.02
100
AcDbAttribute
  2
POINT_NUMBER
 70
     0
 74
     2
280
     0
 71
     1
 72
     0
 11
435173.833
 21
614217.092
 31
2.02
  0
ATTRIB
  5
136
330
134
100
AcDbEntity
  8
DESCRIPTION
100
AcDbText
 10
435173.833
 20
614218.592
 30
2.02
 40
1.0
  1
GONGULEID
 11
435173.833
 21
614219.092
 31
2.02
100
AcDbAttribute
  2
DESCRIPTION
 70
     0
 74
     2
280
     0
 71
     1
 72
     0
 11
435173.833
 21
614219.092
 31
2.02
  0
ATTRIB
  5
137
330
134
100
AcDbEntity
  8
ELEVATION
100
AcDbText
 10
435173.833
 20
614220.592
 30
2.02
 40
1.0
  1
2.02
 11
435173.833
 21
614221.092
 31
2.02
100
AcDbAttribute
  2
ELEVATION
 70
     0
 74
     2
280
     0
 71
     1
 72
     0
 11
435173.833
 21
614221.092
 31
2.02
  0
SEQEND
  5
22F
330
134
100
AcDbEntity
  8
Points
  6
Continuous
  0
INSERT
  5
138
330
1F
100
AcDbEntity
  8
Points
  6
Continuous
100
AcDbBlockReference
 66
     1
  2
Point
 10
435186.843
 20
614195.03
 30
2.109
  0
ATTRIB
  5
139
330
138
100
AcDbEntity
  8
POINT_NUMBER
100
AcDbText
 10
435186.843
 20
614192.53
 30
2.109
 40
1.0
  1
20240716 047
 11
435186.843
 21
614193.03
 31
2.109
100
AcDbAttribute
  2
POINT_NUMBER
 70
     0
 74
     2
280
     0
 71
     1
 72
     0
 11
435186.843
 21
614193.03
 31
2.109
  0
ATTRIB
  5
13A
330
138
100
AcDbEntity
  8
DESCRIPTION
100
AcDbText
 10
435186.843
 20
614194.53
 30
2.109
 40
1.0
  1
GONGULEID
 11
435186.843
 21
614195.03
 31
2.109
100
AcDbAttribute
  2
DESCRIPTION
 70
     0
 74
     2
280
     0
 71
     1
 72
     0
 11
435186.843
 21
614195.03
 31
2.109
  0
ATTRIB
  5
13B
330
138
100
AcDbEntity
  8
ELEVATION
100
AcDbText
 10
435186.843
 20
614196.53
 30
2.109
 40
1.0
  1
2.109
 11
435186.843
 21
614197.03
 31
2.109
100
AcDbAttribute
  2
ELEVATION
 70
     0
 74
     2
280
     0
 71
     1
 72
     0
 11
435186.843
 21
614197.03
 31
2.109
  0
SEQEND
  5
230
330
138
100
AcDbEntity
  8
Points
  6
Continuous
  0
INSERT
  5
13C
330
1F
100
AcDbEntity
  8
Points
  6
Continuous
100
AcDbBlockReference
 66
     1
  2
Point
 10
435146.923
 20
614159.478
 30
6.002
  0
ATTRIB
  5
13D
330
13C
100
AcDbEntity
  8
POINT_NUMBER
100
AcDbText
 10
435146.923
 20
614156.978
 30
6.002
 40
1.0
  1
20240716 048
 11
435146.923
 21
614157.478
 31
6.002
100
AcDbAttribute
  2
POINT_NUMBER
 70
     0
 74
     2
280
     0
 71
     1
 72
     0
 11
435146.923
 21
614157.478
 31
6.002
  0
ATTRIB
  5
13E
330
13C
100
AcDbEntity
  8
DESCRIPTION
100
AcDbText
 10
435146.923
 20
614158.978
 30
6.002
 40
1.0
  1
GONGULEID
 11
435146.923
 21
614159.478
 31
6.002
100
AcDbAttribute
  2
DESCRIPTION
 70
     0
 74
     2
280
     0
 71
     1
 72
     0
 11
435146.923
 21
614159.478
 31
6.002
  0
ATTRIB
  5
13F
330
13C
100
AcDbEntity
  8
ELEVATION
100
AcDbText
 10
435146.923
 20
614160.978
 30
6.002
 40
1.0
  1
6.002
 11
435146.923
 21
614161.478
 31
6.002
100
AcDbAttribute
  2
ELEVATION
 70
     0
 74
     2
280
     0
 71
     1
 72
     0
 11
435146.923
 21
614161.478
 31
6.002
  0
SEQEND
  5
231
330
13C
100
AcDbEntity
  8
Points
  6
Continuous
  0
INSERT
  5
140
330
1F
100
AcDbEntity
  8
Points
  6
Continuous
100
AcDbBlockReference
 66
     1
  2
Point
 10
435119.203
 20
614158.289
 30
7.041
  0
ATTRIB
  5
141
330
140
100
AcDbEntity
  8
POINT_NUMBER
100
AcDbText
 10
435119.203
 20
614155.789
 30
7.041
 40
1.0
  1
20240716 049
 11
435119.203
 21
614156.289
 31
7.041
100
AcDbAttribute
  2
POINT_NUMBER
 70
     0
 74
     2
280
     0
 71
     1
 72
     0
 11
435119.203
 21
614156.289
 31
7.041
  0
ATTRIB
  5
142
330
140
100
AcDbEntity
  8
DESCRIPTION
100
AcDbText
 10
435119.203
 20
614157.789
 30
7.041
 40
1.0
  1
GONGULEID
 11
435119.203
 21
614158.289
 31
7.041
100
AcDbAttribute
  2
DESCRIPTION
 70
     0
 74
     2
280
     0
 71
     1
 72
     0
 11
435119.203
 21
614158.289
 31
7.041
  0
ATTRIB
  5
143
330
140
100
AcDbEntity
  8
ELEVATION
100
AcDbText
 10
435119.203
 20
614159.789
 30
7.041
 40
1.0
  1
7.041
 11
435119.203
 21
614160.289
 31
7.041
100
AcDbAttribute
  2
ELEVATION
 70
     0
 74
     2
280
     0
 71
     1
 72
     0
 11
435119.203
 21
614160.289
 31
7.041
  0
SEQEND
  5
232
330
140
100
AcDbEntity
  8
Points
  6
Continuous
  0
INSERT
  5
144
330
1F
100
AcDbEntity
  8
Points
  6
Continuous
100
AcDbBlockReference
 66
     1
  2
Point
 10
435100.608
 20
614161.953
 30
6.87
  0
ATTRIB
  5
145
330
144
100
AcDbEntity
  8
POINT_NUMBER
100
AcDbText
 10
435100.608
 20
614159.453
 30
6.87
 40
1.0
  1
20240716 050
 11
435100.608
 21
614159.953
 31
6.87
100
AcDbAttribute
  2
POINT_NUMBER
 70
     0
 74
     2
280
     0
 71
     1
 72
     0
 11
435100.608
 21
614159.953
 31
6.87
  0
ATTRIB
  5
146
330
144
100
AcDbEntity
  8
DESCRIPTION
100
AcDbText
 10
435100.608
 20
614161.453
 30
6.87
 40
1.0
  1
GONGULEID
 11
435100.608
 21
614161.953
 31
6.87
100
AcDbAttribute
  2
DESCRIPTION
 70
     0
 74
     2
280
     0
 71
     1
 72
     0
 11
435100.608
 21
614161.953
 31
6.87
  0
ATTRIB
  5
147
330
144
100
AcDbEntity
  8
ELEVATION
100
AcDbText
 10
435100.608
 20
614163.453
 30
6.87
 40
1.0
  1
6.87
 11
435100.608
 21
614163.953
 31
6.87
100
AcDbAttribute
  2
ELEVATION
 70
     0
 74
     2
280
     0
 71
     1
 72
     0
 11
435100.608
 21
614163.953
 31
6.87
  0
SEQEND
  5
233
330
144
100
AcDbEntity
  8
Points
  6
Continuous
  0
INSERT
  5
148
330
1F
100
AcDbEntity
  8
Points
  6
Continuous
100
AcDbBlockReference
 66
     1
  2
Point
 10
435078.862
 20
614154.274
 30
6.688
  0
ATTRIB
  5
149
330
148
100
AcDbEntity
  8
POINT_NUMBER
100
AcDbText
 10
435078.862
 20
614151.774
 30
6.688
 40
1.0
  1
20240716 051
 11
435078.862
 21
614152.274
 31
6.688
100
AcDbAttribute
  2
POINT_NUMBER
 70
     0
 74
     2
280
     0
 71
     1
 72
     0
 11
435078.862
 21
614152.274
 31
6.688
  0
ATTRIB
  5
14A
330
148
100
AcDbEntity
  8
DESCRIPTION
100
AcDbText
 10
435078.862
 20
614153.774
 30
6.688
 40
1.0
  1
GONGULEID
 11
435078.862
 21
614154.274
 31
6.688
100
AcDbAttribute
  2
DESCRIPTION
 70
     0
 74
     2
280
     0
 71
     1
 72
     0
 11
435078.862
 21
614154.274
 31
6.688
  0
ATTRIB
  5
14B
330
148
100
AcDbEntity
  8
ELEVATION
100
AcDbText
 10
435078.862
 20
614155.774
 30
6.688
 40
1.0
  1
6.688
 11
435078.862
 21
614156.274
 31
6.688
100
AcDbAttribute
  2
ELEVATION
 70
     0
 74
     2
280
     0
 71
     1
 72
     0
 11
435078.862
 21
614156.274
 31
6.688
  0
SEQEND
  5
234
330
148
100
AcDbEntity
  8
Points
  6
Continuous
  0
INSERT
  5
14C
330
1F
100
AcDbEntity
  8
Points
  6
Continuous
100
AcDbBlockReference
 66
     1
  2
Point
 10
435044.013
 20
614146.848
 30
4.899
  0
ATTRIB
  5
14D
330
14C
100
AcDbEntity
  8
POINT_NUMBER
100
AcDbText
 10
435044.013
 20
614144.348
 30
4.899
 40
1.0
  1
20240716 052
 11
435044.013
 21
614144.848
 31
4.899
100
AcDbAttribute
  2
POINT_NUMBER
 70
     0
 74
     2
280
     0
 71
     1
 72
     0
 11
435044.013
 21
614144.848
 31
4.899
  0
ATTRIB
  5
14E
330
14C
100
AcDbEntity
  8
DESCRIPTION
100
AcDbText
 10
435044.013
 20
614146.348
 30
4.899
 40
1.0
  1
GONGULEID
 11
435044.013
 21
614146.848
 31
4.899
100
AcDbAttribute
  2
DESCRIPTION
 70
     0
 74
     2
280
     0
 71
     1
 72
     0
 11
435044.013
 21
614146.848
 31
4.899
  0
ATTRIB
  5
14F
330
14C
100
AcDbEntity
  8
ELEVATION
100
AcDbText
 10
435044.013
 20
614148.348
 30
4.899
 40
1.0
  1
4.899
 11
435044.013
 21
614148.848
 31
4.899
100
AcDbAttribute
  2
ELEVATION
 70
     0
 74
     2
280
     0
 71
     1
 72
     0
 11
435044.013
 21
614148.848
 31
4.899
  0
SEQEND
  5
235
330
14C
100
AcDbEntity
  8
Points
  6
Continuous
  0
INSERT
  5
150
330
1F
100
AcDbEntity
  8
Points
  6
Continuous
100
AcDbBlockReference
 66
     1
  2
Point
 10
434960.235
 20
614150.772
 30
5.191
  0
ATTRIB
  5
151
330
150
100
AcDbEntity
  8
POINT_NUMBER
100
AcDbText
 10
434960.235
 20
614148.272
 30
5.191
 40
1.0
  1
20240716 053
 11
434960.235
 21
614148.772
 31
5.191
100
AcDbAttribute
  2
POINT_NUMBER
 70
     0
 74
     2
280
     0
 71
     1
 72
     0
 11
434960.235
 21
614148.772
 31
5.191
  0
ATTRIB
  5
152
330
150
100
AcDbEntity
  8
DESCRIPTION
100
AcDbText
 10
434960.235
 20
614150.272
 30
5.191
 40
1.0
  1
GONGULEID GATNAMOT
 11
434960.235
 21
614150.772
 31
5.191
100
AcDbAttribute
  2
DESCRIPTION
 70
     0
 74
     2
280
     0
 71
     1
 72
     0
 11
434960.235
 21
614150.772
 31
5.191
  0
ATTRIB
  5
153
330
150
100
AcDbEntity
  8
ELEVATION
100
AcDbText
 10
434960.235
 20
614152.272
 30
5.191
 40
1.0
  1
5.191
 11
434960.235
 21
614152.772
 31
5.191
100
AcDbAttribute
  2
ELEVATION
 70
     0
 74
     2
280
     0
 71
     1
 72
     0
 11
434960.235
 21
614152.772
 31
5.191
  0
SEQEND
  5
236
330
150
100
AcDbEntity
  8
Points
  6
Continuous
  0
INSERT
  5
154
330
1F
100
AcDbEntity
  8
Points
  6
Continuous
100
AcDbBlockReference
 66
     1
  2
Point
 10
434963.701
 20
614133.614
 30
4.36
  0
ATTRIB
  5
155
330
154
100
AcDbEntity
  8
POINT_NUMBER
100
AcDbText
 10
434963.701
 20
614131.114
 30
4.36
 40
1.0
  1
20240716 054
 11
434963.701
 21
614131.614
 31
4.36
100
AcDbAttribute
  2
POINT_NUMBER
 70
     0
 74
     2
280
     0
 71
     1
 72
     0
 11
434963.701
 21
614131.614
 31
4.36
  0
ATTRIB
  5
156
330
154
100
AcDbEntity
  8
DESCRIPTION
100
AcDbText
 10
434963.701
 20
614133.114
 30
4.36
 40
1.0
  1
GONGULEID
 11
434963.701
 21
614133.614
 31
4.36
100
AcDbAttribute
  2
DESCRIPTION
 70
     0
 74
     2
280
     0
 71
     1
 72
     0
 11
434963.701
 21
614133.614
 31
4.36
  0
ATTRIB
  5
157
330
154
100
AcDbEntity
  8
ELEVATION
100
AcDbText
 10
434963.701
 20
614135.114
 30
4.36
 40
1.0
  1
4.36
 11
434963.701
 21
614135.614
 31
4.36
100
AcDbAttribute
  2
ELEVATION
 70
     0
 74
     2
280
     0
 71
     1
 72
     0
 11
434963.701
 21
614135.614
 31
4.36
  0
SEQEND
  5
237
330
154
100
AcDbEntity
  8
Points
  6
Continuous
  0
INSERT
  5
158
330
1F
100
AcDbEntity
  8
Points
  6
Continuous
100
AcDbBlockReference
 66
     1
  2
Point
 10
434980.454
 20
614127.021
 30
4.994
  0
ATTRIB
  5
159
330
158
100
AcDbEntity
  8
POINT_NUMBER
100
AcDbText
 10
434980.454
 20
614124.521
 30
4.994
 40
1.0
  1
20240716 055
 11
434980.454
 21
614125.021
 31
4.994
100
AcDbAttribute
  2
POINT_NUMBER
 70
     0
 74
     2
280
     0
 71
     1
 72
     0
 11
434980.454
 21
614125.021
 31
4.994
  0
ATTRIB
  5
15A
330
158
100
AcDbEntity
  8
DESCRIPTION
100
AcDbText
 10
434980.454
 20
614126.521
 30
4.994
 40
1.0
  1
GONGULEID
 11
434980.454
 21
614127.021
 31
4.994
100
AcDbAttribute
  2
DESCRIPTION
 70
     0
 74
     2
280
     0
 71
     1
 72
     0
 11
434980.454
 21
614127.021
 31
4.994
  0
ATTRIB
  5
15B
330
158
100
AcDbEntity
  8
ELEVATION
100
AcDbText
 10
434980.454
 20
614128.521
 30
4.994
 40
1.0
  1
4.994
 11
434980.454
 21
614129.021
 31
4.994
100
AcDbAttribute
  2
ELEVATION
 70
     0
 74
     2
280
     0
 71
     1
 72
     0
 11
434980.454
 21
614129.021
 31
4.994
  0
SEQEND
  5
238
330
158
100
AcDbEntity
  8
Points
  6
Continuous
  0
INSERT
  5
15C
330
1F
100
AcDbEntity
  8
Points
  6
Continuous
100
AcDbBlockReference
 66
     1
  2
Point
 10
434998.758
 20
614128.031
 30
4.96
  0
ATTRIB
  5
15D
330
15C
100
AcDbEntity
  8
POINT_NUMBER
100
AcDbText
 10
434998.758
 20
614125.531
 30
4.96
 40
1.0
  1
20240716 056
 11
434998.758
 21
614126.031
 31
4.96
100
AcDbAttribute
  2
POINT_NUMBER
 70
     0
 74
     2
280
     0
 71
     1
 72
     0
 11
434998.758
 21
614126.031
 31
4.96
  0
ATTRIB
  5
15E
330
15C
100
AcDbEntity
  8
DESCRIPTION
100
AcDbText
 10
434998.758
 20
614127.531
 30
4.96
 40
1.0
  1
GONGULEID
 11
434998.758
 21
614128.031
 31
4.96
100
AcDbAttribute
  2
DESCRIPTION
 70
     0
 74
     2
280
     0
 71
     1
 72
     0
 11
434998.758
 21
614128.031
 31
4.96
  0
ATTRIB
  5
15F
330
15C
100
AcDbEntity
  8
ELEVATION
100
AcDbText
 10
434998.758
 20
614129.531
 30
4.96
 40
1.0
  1
4.96
 11
434998.758
 21
614130.031
 31
4.96
100
AcDbAttribute
  2
ELEVATION
 70
     0
 74
     2
280
     0
 71
     1
 72
     0
 11
434998.758
 21
614130.031
 31
4.96
  0
SEQEND
  5
239
330
15C
100
AcDbEntity
  8
Points
  6
Continuous
  0
INSERT
  5
160
330
1F
100
AcDbEntity
  8
Points
  6
Continuous
100
AcDbBlockReference
 66
     1
  2
Point
 10
435000.997
 20
614141.214
 30
5.036
  0
ATTRIB
  5
161
330
160
100
AcDbEntity
  8
POINT_NUMBER
100
AcDbText
 10
435000.997
 20
614138.714
 30
5.036
 40
1.0
  1
20240716 057
 11
435000.997
 21
614139.214
 31
5.036
100
AcDbAttribute
  2
POINT_NUMBER
 70
     0
 74
     2
280
     0
 71
     1
 72
     0
 11
435000.997
 21
614139.214
 31
5.036
  0
ATTRIB
  5
162
330
160
100
AcDbEntity
  8
DESCRIPTION
100
AcDbText
 10
435000.997
 20
614140.714
 30
5.036
 40
1.0
  1
GONGULEID
 11
435000.997
 21
614141.214
 31
5.036
100
AcDbAttribute
  2
DESCRIPTION
 70
     0
 74
     2
280
     0
 71
     1
 72
     0
 11
435000.997
 21
614141.214
 31
5.036
  0
ATTRIB
  5
163
330
160
100
AcDbEntity
  8
ELEVATION
100
AcDbText
 10
435000.997
 20
614142.714
 30
5.036
 40
1.0
  1
5.036
 11
435000.997
 21
614143.214
 31
5.036
100
AcDbAttribute
  2
ELEVATION
 70
     0
 74
     2
280
     0
 71
     1
 72
     0
 11
435000.997
 21
614143.214
 31
5.036
  0
SEQEND
  5
23A
330
160
100
AcDbEntity
  8
Points
  6
Continuous
  0
INSERT
  5
164
330
1F
100
AcDbEntity
  8
Points
  6
Continuous
100
AcDbBlockReference
 66
     1
  2
Point
 10
435013.426
 20
614148.243
 30
3.934
  0
ATTRIB
  5
165
330
164
100
AcDbEntity
  8
POINT_NUMBER
100
AcDbText
 10
435013.426
 20
614145.743
 30
3.934
 40
1.0
  1
20240716 058
 11
435013.426
 21
614146.243
 31
3.934
100
AcDbAttribute
  2
POINT_NUMBER
 70
     0
 74
     2
280
     0
 71
     1
 72
     0
 11
435013.426
 21
614146.243
 31
3.934
  0
ATTRIB
  5
166
330
164
100
AcDbEntity
  8
DESCRIPTION
100
AcDbText
 10
435013.426
 20
614147.743
 30
3.934
 40
1.0
  1
GONGULEID
 11
435013.426
 21
614148.243
 31
3.934
100
AcDbAttribute
  2
DESCRIPTION
 70
     0
 74
     2
280
     0
 71
     1
 72
     0
 11
435013.426
 21
614148.243
 31
3.934
  0
ATTRIB
  5
167
330
164
100
AcDbEntity
  8
ELEVATION
100
AcDbText
 10
435013.426
 20
614149.743
 30
3.934
 40
1.0
  1
3.934
 11
435013.426
 21
614150.243
 31
3.934
100
AcDbAttribute
  2
ELEVATION
 70
     0
 74
     2
280
     0
 71
     1
 72
     0
 11
435013.426
 21
614150.243
 31
3.934
  0
SEQEND
  5
23B
330
164
100
AcDbEntity
  8
Points
  6
Continuous
  0
INSERT
  5
168
330
1F
100
AcDbEntity
  8
Points
  6
Continuous
100
AcDbBlockReference
 66
     1
  2
Point
 10
435027.684
 20
614138.865
 30
4.213
  0
ATTRIB
  5
169
330
168
100
AcDbEntity
  8
POINT_NUMBER
100
AcDbText
 10
435027.684
 20
614136.365
 30
4.213
 40
1.0
  1
20240716 059
 11
435027.684
 21
614136.865
 31
4.213
100
AcDbAttribute
  2
POINT_NUMBER
 70
     0
 74
     2
280
     0
 71
     1
 72
     0
 11
435027.684
 21
614136.865
 31
4.213
  0
ATTRIB
  5
16A
330
168
100
AcDbEntity
  8
DESCRIPTION
100
AcDbText
 10
435027.684
 20
614138.365
 30
4.213
 40
1.0
  1
GONGULEID
 11
435027.684
 21
614138.865
 31
4.213
100
AcDbAttribute
  2
DESCRIPTION
 70
     0
 74
     2
280
     0
 71
     1
 72
     0
 11
435027.684
 21
614138.865
 31
4.213
  0
ATTRIB
  5
16B
330
168
100
AcDbEntity
  8
ELEVATION
100
AcDbText
 10
435027.684
 20
614140.365
 30
4.213
 40
1.0
  1
4.213
 11
435027.684
 21
614140.865
 31
4.213
100
AcDbAttribute
  2
ELEVATION
 70
     0
 74
     2
280
     0
 71
     1
 72
     0
 11
435027.684
 21
614140.865
 31
4.213
  0
SEQEND
  5
23C
330
168
100
AcDbEntity
  8
Points
  6
Continuous
  0
INSERT
  5
16C
330
1F
100
AcDbEntity
  8
Points
  6
Continuous
100
AcDbBlockReference
 66
     1
  2
Point
 10
435039.299
 20
614125.819
 30
5.522
  0
ATTRIB
  5
16D
330
16C
100
AcDbEntity
  8
POINT_NUMBER
100
AcDbText
 10
435039.299
 20
614123.319
 30
5.522
 40
1.0
  1
20240716 060
 11
435039.299
 21
614123.819
 31
5.522
100
AcDbAttribute
  2
POINT_NUMBER
 70
     0
 74
     2
280
     0
 71
     1
 72
     0
 11
435039.299
 21
614123.819
 31
5.522
  0
ATTRIB
  5
16E
330
16C
100
AcDbEntity
  8
DESCRIPTION
100
AcDbText
 10
435039.299
 20
614125.319
 30
5.522
 40
1.0
  1
GONGULEID
 11
435039.299
 21
614125.819
 31
5.522
100
AcDbAttribute
  2
DESCRIPTION
 70
     0
 74
     2
280
     0
 71
     1
 72
     0
 11
435039.299
 21
614125.819
 31
5.522
  0
ATTRIB
  5
16F
330
16C
100
AcDbEntity
  8
ELEVATION
100
AcDbText
 10
435039.299
 20
614127.319
 30
5.522
 40
1.0
  1
5.522
 11
435039.299
 21
614127.819
 31
5.522
100
AcDbAttribute
  2
ELEVATION
 70
     0
 74
     2
280
     0
 71
     1
 72
     0
 11
435039.299
 21
614127.819
 31
5.522
  0
SEQEND
  5
23D
330
16C
100
AcDbEntity
  8
Points
  6
Continuous
  0
INSERT
  5
170
330
1F
100
AcDbEntity
  8
Points
  6
Continuous
100
AcDbBlockReference
 66
     1
  2
Point
 10
435051.137
 20
614109.762
 30
6.566
  0
ATTRIB
  5
171
330
170
100
AcDbEntity
  8
POINT_NUMBER
100
AcDbText
 10
435051.137
 20
614107.262
 30
6.566
 40
1.0
  1
20240716 061
 11
435051.137
 21
614107.762
 31
6.566
100
AcDbAttribute
  2
POINT_NUMBER
 70
     0
 74
     2
280
     0
 71
     1
 72
     0
 11
435051.137
 21
614107.762
 31
6.566
  0
ATTRIB
  5
172
330
170
100
AcDbEntity
  8
DESCRIPTION
100
AcDbText
 10
435051.137
 20
614109.262
 30
6.566
 40
1.0
  1
GONGULEID
 11
435051.137
 21
614109.762
 31
6.566
100
AcDbAttribute
  2
DESCRIPTION
 70
     0
 74
     2
280
     0
 71
     1
 72
     0
 11
435051.137
 21
614109.762
 31
6.566
  0
ATTRIB
  5
173
330
170
100
AcDbEntity
  8
ELEVATION
100
AcDbText
 10
435051.137
 20
614111.262
 30
6.566
 40
1.0
  1
6.566
 11
435051.137
 21
614111.762
 31
6.566
100
AcDbAttribute
  2
ELEVATION
 70
     0
 74
     2
280
     0
 71
     1
 72
     0
 11
435051.137
 21
614111.762
 31
6.566
  0
SEQEND
  5
23E
330
170
100
AcDbEntity
  8
Points
  6
Continuous
  0
INSERT
  5
174
330
1F
100
AcDbEntity
  8
Points
  6
Continuous
100
AcDbBlockReference
 66
     1
  2
Point
 10
435070.566
 20
614105.738
 30
6.264
  0
ATTRIB
  5
175
330
174
100
AcDbEntity
  8
POINT_NUMBER
100
AcDbText
 10
435070.566
 20
614103.238
 30
6.264
 40
1.0
  1
20240716 062
 11
435070.566
 21
614103.738
 31
6.264
100
AcDbAttribute
  2
POINT_NUMBER
 70
     0
 74
     2
280
     0
 71
     1
 72
     0
 11
435070.566
 21
614103.738
 31
6.264
  0
ATTRIB
  5
176
330
174
100
AcDbEntity
  8
DESCRIPTION
100
AcDbText
 10
435070.566
 20
614105.238
 30
6.264
 40
1.0
  1
GONGULEID
 11
435070.566
 21
614105.738
 31
6.264
100
AcDbAttribute
  2
DESCRIPTION
 70
     0
 74
     2
280
     0
 71
     1
 72
     0
 11
435070.566
 21
614105.738
 31
6.264
  0
ATTRIB
  5
177
330
174
100
AcDbEntity
  8
ELEVATION
100
AcDbText
 10
435070.566
 20
614107.238
 30
6.264
 40
1.0
  1
6.264
 11
435070.566
 21
614107.738
 31
6.264
100
AcDbAttribute
  2
ELEVATION
 70
     0
 74
     2
280
     0
 71
     1
 72
     0
 11
435070.566
 21
614107.738
 31
6.264
  0
SEQEND
  5
23F
330
174
100
AcDbEntity
  8
Points
  6
Continuous
  0
INSERT
  5
178
330
1F
100
AcDbEntity
  8
Points
  6
Continuous
100
AcDbBlockReference
 66
     1
  2
Point
 10
435068.967
 20
614092.435
 30
4.83
  0
ATTRIB
  5
179
330
178
100
AcDbEntity
  8
POINT_NUMBER
100
AcDbText
 10
435068.967
 20
614089.935
 30
4.83
 40
1.0
  1
20240716 063
 11
435068.967
 21
614090.435
 31
4.83
100
AcDbAttribute
  2
POINT_NUMBER
 70
     0
 74
     2
280
     0
 71
     1
 72
     0
 11
435068.967
 21
614090.435
 31
4.83
  0
ATTRIB
  5
17A
330
178
100
AcDbEntity
  8
DESCRIPTION
100
AcDbText
 10
435068.967
 20
614091.935
 30
4.83
 40
1.0
  1
GONGULEID
 11
435068.967
 21
614092.435
 31
4.83
100
AcDbAttribute
  2
DESCRIPTION
 70
     0
 74
     2
280
     0
 71
     1
 72
     0
 11
435068.967
 21
614092.435
 31
4.83
  0
ATTRIB
  5
17B
330
178
100
AcDbEntity
  8
ELEVATION
100
AcDbText
 10
435068.967
 20
614093.935
 30
4.83
 40
1.0
  1
4.83
 11
435068.967
 21
614094.435
 31
4.83
100
AcDbAttribute
  2
ELEVATION
 70
     0
 74
     2
280
     0
 71
     1
 72
     0
 11
435068.967
 21
614094.435
 31
4.83
  0
SEQEND
  5
240
330
178
100
AcDbEntity
  8
Points
  6
Continuous
  0
INSERT
  5
17C
330
1F
100
AcDbEntity
  8
Points
  6
Continuous
100
AcDbBlockReference
 66
     1
  2
Point
 10
435093.268
 20
614094.662
 30
4.729
  0
ATTRIB
  5
17D
330
17C
100
AcDbEntity
  8
POINT_NUMBER
100
AcDbText
 10
435093.268
 20
614092.162
 30
4.729
 40
1.0
  1
20240716 064
 11
435093.268
 21
614092.662
 31
4.729
100
AcDbAttribute
  2
POINT_NUMBER
 70
     0
 74
     2
280
     0
 71
     1
 72
     0
 11
435093.268
 21
614092.662
 31
4.729
  0
ATTRIB
  5
17E
330
17C
100
AcDbEntity
  8
DESCRIPTION
100
AcDbText
 10
435093.268
 20
614094.162
 30
4.729
 40
1.0
  1
GONGULEID
 11
435093.268
 21
614094.662
 31
4.729
100
AcDbAttribute
  2
DESCRIPTION
 70
     0
 74
     2
280
     0
 71
     1
 72
     0
 11
435093.268
 21
614094.662
 31
4.729
  0
ATTRIB
  5
17F
330
17C
100
AcDbEntity
  8
ELEVATION
100
AcDbText
 10
435093.268
 20
614096.162
 30
4.729
 40
1.0
  1
4.729
 11
435093.268
 21
614096.662
 31
4.729
100
AcDbAttribute
  2
ELEVATION
 70
     0
 74
     2
280
     0
 71
     1
 72
     0
 11
435093.268
 21
614096.662
 31
4.729
  0
SEQEND
  5
241
330
17C
100
AcDbEntity
  8
Points
  6
Continuous
  0
INSERT
  5
180
330
1F
100
AcDbEntity
  8
Points
  6
Continuous
100
AcDbBlockReference
 66
     1
  2
Point
 10
435118.333
 20
614097.779
 30
6.165
  0
ATTRIB
  5
181
330
180
100
AcDbEntity
  8
POINT_NUMBER
100
AcDbText
 10
435118.333
 20
614095.279
 30
6.165
 40
1.0
  1
20240716 065
 11
435118.333
 21
614095.779
 31
6.165
100
AcDbAttribute
  2
POINT_NUMBER
 70
     0
 74
     2
280
     0
 71
     1
 72
     0
 11
435118.333
 21
614095.779
 31
6.165
  0
ATTRIB
  5
182
330
180
100
AcDbEntity
  8
DESCRIPTION
100
AcDbText
 10
435118.333
 20
614097.279
 30
6.165
 40
1.0
  1
GONGULEID
 11
435118.333
 21
614097.779
 31
6.165
100
AcDbAttribute
  2
DESCRIPTION
 70
     0
 74
     2
280
     0
 71
     1
 72
     0
 11
435118.333
 21
614097.779
 31
6.165
  0
ATTRIB
  5
183
330
180
100
AcDbEntity
  8
ELEVATION
100
AcDbText
 10
435118.333
 20
614099.279
 30
6.165
 40
1.0
  1
6.165
 11
435118.333
 21
614099.779
 31
6.165
100
AcDbAttribute
  2
ELEVATION
 70
     0
 74
     2
280
     0
 71
     1
 72
     0
 11
435118.333
 21
614099.779
 31
6.165
  0
SEQEND
  5
242
330
180
100
AcDbEntity
  8
Points
  6
Continuous
  0
INSERT
  5
184
330
1F
100
AcDbEntity
  8
Points
  6
Continuous
100
AcDbBlockReference
 66
     1
  2
Point
 10
435127.911
 20
614086.465
 30
6.163
  0
ATTRIB
  5
185
330
184
100
AcDbEntity
  8
POINT_NUMBER
100
AcDbText
 10
435127.911
 20
614083.965
 30
6.163
 40
1.0
  1
20240716 066
 11
435127.911
 21
614084.465
 31
6.163
100
AcDbAttribute
  2
POINT_NUMBER
 70
     0
 74
     2
280
     0
 71
     1
 72
     0
 11
435127.911
 21
614084.465
 31
6.163
  0
ATTRIB
  5
186
330
184
100
AcDbEntity
  8
DESCRIPTION
100
AcDbText
 10
435127.911
 20
614085.965
 30
6.163
 40
1.0
  1
GONGULEID
 11
435127.911
 21
614086.465
 31
6.163
100
AcDbAttribute
  2
DESCRIPTION
 70
     0
 74
     2
280
     0
 71
     1
 72
     0
 11
435127.911
 21
614086.465
 31
6.163
  0
ATTRIB
  5
187
330
184
100
AcDbEntity
  8
ELEVATION
100
AcDbText
 10
435127.911
 20
614087.965
 30
6.163
 40
1.0
  1
6.163
 11
435127.911
 21
614088.465
 31
6.163
100
AcDbAttribute
  2
ELEVATION
 70
     0
 74
     2
280
     0
 71
     1
 72
     0
 11
435127.911
 21
614088.465
 31
6.163
  0
SEQEND
  5
243
330
184
100
AcDbEntity
  8
Points
  6
Continuous
  0
INSERT
  5
188
330
1F
100
AcDbEntity
  8
Points
  6
Continuous
100
AcDbBlockReference
 66
     1
  2
Point
 10
435151.163
 20
614104.528
 30
3.773
  0
ATTRIB
  5
189
330
188
100
AcDbEntity
  8
POINT_NUMBER
100
AcDbText
 10
435151.163
 20
614102.028
 30
3.773
 40
1.0
  1
20240716 067
 11
435151.163
 21
614102.528
 31
3.773
100
AcDbAttribute
  2
POINT_NUMBER
 70
     0
 74
     2
280
     0
 71
     1
 72
     0
 11
435151.163
 21
614102.528
 31
3.773
  0
ATTRIB
  5
18A
330
188
100
AcDbEntity
  8
DESCRIPTION
100
AcDbText
 10
435151.163
 20
614104.028
 30
3.773
 40
1.0
  1
GONGULEID
 11
435151.163
 21
614104.528
 31
3.773
100
AcDbAttribute
  2
DESCRIPTION
 70
     0
 74
     2
280
     0
 71
     1
 72
     0
 11
435151.163
 21
614104.528
 31
3.773
  0
ATTRIB
  5
18B
330
188
100
AcDbEntity
  8
ELEVATION
100
AcDbText
 10
435151.163
 20
614106.028
 30
3.773
 40
1.0
  1
3.773
 11
435151.163
 21
614106.528
 31
3.773
100
AcDbAttribute
  2
ELEVATION
 70
     0
 74
     2
280
     0
 71
     1
 72
     0
 11
435151.163
 21
614106.528
 31
3.773
  0
SEQEND
  5
244
330
188
100
AcDbEntity
  8
Points
  6
Continuous
  0
INSERT
  5
18C
330
1F
100
AcDbEntity
  8
Points
  6
Continuous
100
AcDbBlockReference
 66
     1
  2
Point
 10
435157.808
 20
614114.522
 30
3.297
  0
ATTRIB
  5
18D
330
18C
100
AcDbEntity
  8
POINT_NUMBER
100
AcDbText
 10
435157.808
 20
614112.022
 30
3.297
 40
1.0
  1
20240716 068
 11
435157.808
 21
614112.522
 31
3.297
100
AcDbAttribute
  2
POINT_NUMBER
 70
     0
 74
     2
280
     0
 71
     1
 72
     0
 11
435157.808
 21
614112.522
 31
3.297
  0
ATTRIB
  5
18E
330
18C
100
AcDbEntity
  8
DESCRIPTION
100
AcDbText
 10
435157.808
 20
614114.022
 30
3.297
 40
1.0
  1
GONGULEID
 11
435157.808
 21
614114.522
 31
3.297
100
AcDbAttribute
  2
DESCRIPTION
 70
     0
 74
     2
280
     0
 71
     1
 72
     0
 11
435157.808
 21
614114.522
 31
3.297
  0
ATTRIB
  5
18F
330
18C
100
AcDbEntity
  8
ELEVATION
100
AcDbText
 10
435157.808
 20
614116.022
 30
3.297
 40
1.0
  1
3.297
 11
435157.808
 21
614116.522
 31
3.297
100
AcDbAttribute
  2
ELEVATION
 70
     0
 74
     2
280
     0
 71
     1
 72
     0
 11
435157.808
 21
614116.522
 31
3.297
  0
SEQEND
  5
245
330
18C
100
AcDbEntity
  8
Points
  6
Continuous
  0
INSERT
  5
190
330
1F
100
AcDbEntity
  8
Points
  6
Continuous
100
AcDbBlockReference
 66
     1
  2
Point
 10
435169.425
 20
614123.236
 30
1.808
  0
ATTRIB
  5
191
330
190
100
AcDbEntity
  8
POINT_NUMBER
100
AcDbText
 10
435169.425
 20
614120.736
 30
1.808
 40
1.0
  1
20240716 069
 11
435169.425
 21
614121.236
 31
1.808
100
AcDbAttribute
  2
POINT_NUMBER
 70
     0
 74
     2
280
     0
 71
     1
 72
     0
 11
435169.425
 21
614121.236
 31
1.808
  0
ATTRIB
  5
192
330
190
100
AcDbEntity
  8
DESCRIPTION
100
AcDbText
 10
435169.425
 20
614122.736
 30
1.808
 40
1.0
  1
GONGULEID
 11
435169.425
 21
614123.236
 31
1.808
100
AcDbAttribute
  2
DESCRIPTION
 70
     0
 74
     2
280
     0
 71
     1
 72
     0
 11
435169.425
 21
614123.236
 31
1.808
  0
ATTRIB
  5
193
330
190
100
AcDbEntity
  8
ELEVATION
100
AcDbText
 10
435169.425
 20
614124.736
 30
1.808
 40
1.0
  1
1.808
 11
435169.425
 21
614125.236
 31
1.808
100
AcDbAttribute
  2
ELEVATION
 70
     0
 74
     2
280
     0
 71
     1
 72
     0
 11
435169.425
 21
614125.236
 31
1.808
  0
SEQEND
  5
246
330
190
100
AcDbEntity
  8
Points
  6
Continuous
  0
INSERT
  5
194
330
1F
100
AcDbEntity
  8
Points
  6
Continuous
100
AcDbBlockReference
 66
     1
  2
Point
 10
435172.492
 20
614131.326
 30
1.892
  0
ATTRIB
  5
195
330
194
100
AcDbEntity
  8
POINT_NUMBER
100
AcDbText
 10
435172.492
 20
614128.826
 30
1.892
 40
1.0
  1
20240716 070
 11
435172.492
 21
614129.326
 31
1.892
100
AcDbAttribute
  2
POINT_NUMBER
 70
     0
 74
     2
280
     0
 71
     1
 72
     0
 11
435172.492
 21
614129.326
 31
1.892
  0
ATTRIB
  5
196
330
194
100
AcDbEntity
  8
DESCRIPTION
100
AcDbText
 10
435172.492
 20
614130.826
 30
1.892
 40
1.0
  1
GONGULEID
 11
435172.492
 21
614131.326
 31
1.892
100
AcDbAttribute
  2
DESCRIPTION
 70
     0
 74
     2
280
     0
 71
     1
 72
     0
 11
435172.492
 21
614131.326
 31
1.892
  0
ATTRIB
  5
197
330
194
100
AcDbEntity
  8
ELEVATION
100
AcDbText
 10
435172.492
 20
614132.826
 30
1.892
 40
1.0
  1
1.892
 11
435172.492
 21
614133.326
 31
1.892
100
AcDbAttribute
  2
ELEVATION
 70
     0
 74
     2
280
     0
 71
     1
 72
     0
 11
435172.492
 21
614133.326
 31
1.892
  0
SEQEND
  5
247
330
194
100
AcDbEntity
  8
Points
  6
Continuous
  0
INSERT
  5
198
330
1F
100
AcDbEntity
  8
Points
  6
Continuous
100
AcDbBlockReference
 66
     1
  2
Point
 10
435171.579
 20
614144.862
 30
2.524
  0
ATTRIB
  5
199
330
198
100
AcDbEntity
  8
POINT_NUMBER
100
AcDbText
 10
435171.579
 20
614142.362
 30
2.524
 40
1.0
  1
20240716 071
 11
435171.579
 21
614142.862
 31
2.524
100
AcDbAttribute
  2
POINT_NUMBER
 70
     0
 74
     2
280
     0
 71
     1
 72
     0
 11
435171.579
 21
614142.862
 31
2.524
  0
ATTRIB
  5
19A
330
198
100
AcDbEntity
  8
DESCRIPTION
100
AcDbText
 10
435171.579
 20
614144.362
 30
2.524
 40
1.0
  1
GONGULEID
 11
435171.579
 21
614144.862
 31
2.524
100
AcDbAttribute
  2
DESCRIPTION
 70
     0
 74
     2
280
     0
 71
     1
 72
     0
 11
435171.579
 21
614144.862
 31
2.524
  0
ATTRIB
  5
19B
330
198
100
AcDbEntity
  8
ELEVATION
100
AcDbText
 10
435171.579
 20
614146.362
 30
2.524
 40
1.0
  1
2.524
 11
435171.579
 21
614146.862
 31
2.524
100
AcDbAttribute
  2
ELEVATION
 70
     0
 74
     2
280
     0
 71
     1
 72
     0
 11
435171.579
 21
614146.862
 31
2.524
  0
SEQEND
  5
248
330
198
100
AcDbEntity
  8
Points
  6
Continuous
  0
INSERT
  5
19C
330
1F
100
AcDbEntity
  8
Points
  6
Continuous
100
AcDbBlockReference
 66
     1
  2
Point
 10
435166.559
 20
614174.417
 30
4.056
  0
ATTRIB
  5
19D
330
19C
100
AcDbEntity
  8
POINT_NUMBER
100
AcDbText
 10
435166.559
 20
614171.917
 30
4.056
 40
1.0
  1
20240716 072
 11
435166.559
 21
614172.417
 31
4.056
100
AcDbAttribute
  2
POINT_NUMBER
 70
     0
 74
     2
280
     0
 71
     1
 72
     0
 11
435166.559
 21
614172.417
 31
4.056
  0
ATTRIB
  5
19E
330
19C
100
AcDbEntity
  8
DESCRIPTION
100
AcDbText
 10
435166.559
 20
614173.917
 30
4.056
 40
1.0
  1
GONGULEID GATNAMOT
 11
435166.559
 21
614174.417
 31
4.056
100
AcDbAttribute
  2
DESCRIPTION
 70
     0
 74
     2
280
     0
 71
     1
 72
     0
 11
435166.559
 21
614174.417
 31
4.056
  0
ATTRIB
  5
19F
330
19C
100
AcDbEntity
  8
ELEVATION
100
AcDbText
 10
435166.559
 20
614175.917
 30
4.056
 40
1.0
  1
4.056
 11
435166.559
 21
614176.417
 31
4.056
100
AcDbAttribute
  2
ELEVATION
 70
     0
 74
     2
280
     0
 71
     1
 72
     0
 11
435166.559
 21
614176.417
 31
4.056
  0
SEQEND
  5
249
330
19C
100
AcDbEntity
  8
Points
  6
Continuous
  0
INSERT
  5
1A0
330
1F
100
AcDbEntity
  8
Points
  6
Continuous
100
AcDbBlockReference
 66
     1
  2
Point
 10
434964.179
 20
614155.874
 30
5.496
  0
ATTRIB
  5
1A1
330
1A0
100
AcDbEntity
  8
POINT_NUMBER
100
AcDbText
 10
434964.179
 20
614153.374
 30
5.496
 40
1.0
  1
20240716 073
 11
434964.179
 21
614153.874
 31
5.496
100
AcDbAttribute
  2
POINT_NUMBER
 70
     0
 74
     2
280
     0
 71
     1
 72
     0
 11
434964.179
 21
614153.874
 31
5.496
  0
ATTRIB
  5
1A2
330
1A0
100
AcDbEntity
  8
DESCRIPTION
100
AcDbText
 10
434964.179
 20
614155.374
 30
5.496
 40
1.0
  1
GONGULEID
 11
434964.179
 21
614155.874
 31
5.496
100
AcDbAttribute
  2
DESCRIPTION
 70
     0
 74
     2
280
     0
 71
     1
 72
     0
 11
434964.179
 21
614155.874
 31
5.496
  0
ATTRIB
  5
1A3
330
1A0
100
AcDbEntity
  8
ELEVATION
100
AcDbText
 10
434964.179
 20
614157.374
 30
5.496
 40
1.0
  1
5.496
 11
434964.179
 21
614157.874
 31
5.496
100
AcDbAttribute
  2
ELEVATION
 70
     0
 74
     2
280
     0
 71
     1
 72
     0
 11
434964.179
 21
614157.874
 31
5.496
  0
SEQEND
  5
24A
330
1A0
100
AcDbEntity
  8
Points
  6
Continuous
  0
INSERT
  5
1A4
330
1F
100
AcDbEntity
  8
Points
  6
Continuous
100
AcDbBlockReference
 66
     1
  2
Point
 10
434970.339
 20
614164.318
 30
5.21
  0
ATTRIB
  5
1A5
330
1A4
100
AcDbEntity
  8
POINT_NUMBER
100
AcDbText
 10
434970.339
 20
614161.818
 30
5.21
 40
1.0
  1
20240716 074
 11
434970.339
 21
614162.318
 31
5.21
100
AcDbAttribute
  2
POINT_NUMBER
 70
     0
 74
     2
280
     0
 71
     1
 72
     0
 11
434970.339
 21
614162.318
 31
5.21
  0
ATTRIB
  5
1A6
330
1A4
100
AcDbEntity
  8
DESCRIPTION
100
AcDbText
 10
434970.339
 20
614163.818
 30
5.21
 40
1.0
  1
GONGULEID
 11
434970.339
 21
614164.318
 31
5.21
100
AcDbAttribute
  2
DESCRIPTION
 70
     0
 74
     2
280
     0
 71
     1
 72
     0
 11
434970.339
 21
614164.318
 31
5.21
  0
ATTRIB
  5
1A7
330
1A4
100
AcDbEntity
  8
ELEVATION
100
AcDbText
 10
434970.339
 20
614165.818
 30
5.21
 40
1.0
  1
5.21
 11
434970.339
 21
614166.318
 31
5.21
100
AcDbAttribute
  2
ELEVATION
 70
     0
 74
     2
280
     0
 71
     1
 72
     0
 11
434970.339
 21
614166.318
 31
5.21
  0
SEQEND
  5
24B
330
1A4
100
AcDbEntity
  8
Points
  6
Continuous
  0
INSERT
  5
1A8
330
1F
100
AcDbEntity
  8
Points
  6
Continuous
100
AcDbBlockReference
 66
     1
  2
Point
 10
434992.001
 20
614166.17
 30
5.367
  0
ATTRIB
  5
1A9
330
1A8
100
AcDbEntity
  8
POINT_NUMBER
100
AcDbText
 10
434992.001
 20
614163.67
 30
5.367
 40
1.0
  1
20240716 075
 11
434992.001
 21
614164.17
 31
5.367
100
AcDbAttribute
  2
POINT_NUMBER
 70
     0
 74
     2
280
     0
 71
     1
 72
     0
 11
434992.001
 21
614164.17
 31
5.367
  0
ATTRIB
  5
1AA
330
1A8
100
AcDbEntity
  8
DESCRIPTION
100
AcDbText
 10
434992.001
 20
614165.67
 30
5.367
 40
1.0
  1
GONGULEID
 11
434992.001
 21
614166.17
 31
5.367
100
AcDbAttribute
  2
DESCRIPTION
 70
     0
 74
     2
280
     0
 71
     1
 72
     0
 11
434992.001
 21
614166.17
 31
5.367
  0
ATTRIB
  5
1AB
330
1A8
100
AcDbEntity
  8
ELEVATION
100
AcDbText
 10
434992.001
 20
614167.67
 30
5.367
 40
1.0
  1
5.367
 11
434992.001
 21
614168.17
 31
5.367
100
AcDbAttribute
  2
ELEVATION
 70
     0
 74
     2
280
     0
 71
     1
 72
     0
 11
434992.001
 21
614168.17
 31
5.367
  0
SEQEND
  5
24C
330
1A8
100
AcDbEntity
  8
Points
  6
Continuous
  0
INSERT
  5
1AC
330
1F
100
AcDbEntity
  8
Points
  6
Continuous
100
AcDbBlockReference
 66
     1
  2
Point
 10
435012.777
 20
614167.601
 30
4.319
  0
ATTRIB
  5
1AD
330
1AC
100
AcDbEntity
  8
POINT_NUMBER
100
AcDbText
 10
435012.777
 20
614165.101
 30
4.319
 40
1.0
  1
20240716 076
 11
435012.777
 21
614165.601
 31
4.319
100
AcDbAttribute
  2
POINT_NUMBER
 70
     0
 74
     2
280
     0
 71
     1
 72
     0
 11
435012.777
 21
614165.601
 31
4.319
  0
ATTRIB
  5
1AE
330
1AC
100
AcDbEntity
  8
DESCRIPTION
100
AcDbText
 10
435012.777
 20
614167.101
 30
4.319
 40
1.0
  1
GONGULEID
 11
435012.777
 21
614167.601
 31
4.319
100
AcDbAttribute
  2
DESCRIPTION
 70
     0
 74
     2
280
     0
 71
     1
 72
     0
 11
435012.777
 21
614167.601
 31
4.319
  0
ATTRIB
  5
1AF
330
1AC
100
AcDbEntity
  8
ELEVATION
100
AcDbText
 10
435012.777
 20
614169.101
 30
4.319
 40
1.0
  1
4.319
 11
435012.777
 21
614169.601
 31
4.319
100
AcDbAttribute
  2
ELEVATION
 70
     0
 74
     2
280
     0
 71
     1
 72
     0
 11
435012.777
 21
614169.601
 31
4.319
  0
SEQEND
  5
24D
330
1AC
100
AcDbEntity
  8
Points
  6
Continuous
  0
INSERT
  5
1B0
330
1F
100
AcDbEntity
  8
Points
  6
Continuous
100
AcDbBlockReference
 66
     1
  2
Point
 10
435022.948
 20
614179.43
 30
5.76
  0
ATTRIB
  5
1B1
330
1B0
100
AcDbEntity
  8
POINT_NUMBER
100
AcDbText
 10
435022.948
 20
614176.93
 30
5.76
 40
1.0
  1
20240716 077
 11
435022.948
 21
614177.43
 31
5.76
100
AcDbAttribute
  2
POINT_NUMBER
 70
     0
 74
     2
280
     0
 71
     1
 72
     0
 11
435022.948
 21
614177.43
 31
5.76
  0
ATTRIB
  5
1B2
330
1B0
100
AcDbEntity
  8
DESCRIPTION
100
AcDbText
 10
435022.948
 20
614178.93
 30
5.76
 40
1.0
  1
GONGULEID
 11
435022.948
 21
614179.43
 31
5.76
100
AcDbAttribute
  2
DESCRIPTION
 70
     0
 74
     2
280
     0
 71
     1
 72
     0
 11
435022.948
 21
614179.43
 31
5.76
  0
ATTRIB
  5
1B3
330
1B0
100
AcDbEntity
  8
ELEVATION
100
AcDbText
 10
435022.948
 20
614180.93
 30
5.76
 40
1.0
  1
5.76
 11
435022.948
 21
614181.43
 31
5.76
100
AcDbAttribute
  2
ELEVATION
 70
     0
 74
     2
280
     0
 71
     1
 72
     0
 11
435022.948
 21
614181.43
 31
5.76
  0
SEQEND
  5
24E
330
1B0
100
AcDbEntity
  8
Points
  6
Continuous
  0
INSERT
  5
1B4
330
1F
100
AcDbEntity
  8
Points
  6
Continuous
100
AcDbBlockReference
 66
     1
  2
Point
 10
435022.314
 20
614186.712
 30
6.181
  0
ATTRIB
  5
1B5
330
1B4
100
AcDbEntity
  8
POINT_NUMBER
100
AcDbText
 10
435022.314
 20
614184.212
 30
6.181
 40
1.0
  1
20240716 078
 11
435022.314
 21
614184.712
 31
6.181
100
AcDbAttribute
  2
POINT_NUMBER
 70
     0
 74
     2
280
     0
 71
     1
 72
     0
 11
435022.314
 21
614184.712
 31
6.181
  0
ATTRIB
  5
1B6
330
1B4
100
AcDbEntity
  8
DESCRIPTION
100
AcDbText
 10
435022.314
 20
614186.212
 30
6.181
 40
1.0
  1
GONGULEID
 11
435022.314
 21
614186.712
 31
6.181
100
AcDbAttribute
  2
DESCRIPTION
 70
     0
 74
     2
280
     0
 71
     1
 72
     0
 11
435022.314
 21
614186.712
 31
6.181
  0
ATTRIB
  5
1B7
330
1B4
100
AcDbEntity
  8
ELEVATION
100
AcDbText
 10
435022.314
 20
614188.212
 30
6.181
 40
1.0
  1
6.181
 11
435022.314
 21
614188.712
 31
6.181
100
AcDbAttribute
  2
ELEVATION
 70
     0
 74
     2
280
     0
 71
     1
 72
     0
 11
435022.314
 21
614188.712
 31
6.181
  0
SEQEND
  5
24F
330
1B4
100
AcDbEntity
  8
Points
  6
Continuous
  0
INSERT
  5
1B8
330
1F
100
AcDbEntity
  8
Points
  6
Continuous
100
AcDbBlockReference
 66
     1
  2
Point
 10
435031.663
 20
614190.094
 30
6.124
  0
ATTRIB
  5
1B9
330
1B8
100
AcDbEntity
  8
POINT_NUMBER
100
AcDbText
 10
435031.663
 20
614187.594
 30
6.124
 40
1.0
  1
20240716 079
 11
435031.663
 21
614188.094
 31
6.124
100
AcDbAttribute
  2
POINT_NUMBER
 70
     0
 74
     2
280
     0
 71
     1
 72
     0
 11
435031.663
 21
614188.094
 31
6.124
  0
ATTRIB
  5
1BA
330
1B8
100
AcDbEntity
  8
DESCRIPTION
100
AcDbText
 10
435031.663
 20
614189.594
 30
6.124
 40
1.0
  1
GONGULEID
 11
435031.663
 21
614190.094
 31
6.124
100
AcDbAttribute
  2
DESCRIPTION
 70
     0
 74
     2
280
     0
 71
     1
 72
     0
 11
435031.663
 21
614190.094
 31
6.124
  0
ATTRIB
  5
1BB
330
1B8
100
AcDbEntity
  8
ELEVATION
100
AcDbText
 10
435031.663
 20
614191.594
 30
6.124
 40
1.0
  1
6.124
 11
435031.663
 21
614192.094
 31
6.124
100
AcDbAttribute
  2
ELEVATION
 70
     0
 74
     2
280
     0
 71
     1
 72
     0
 11
435031.663
 21
614192.094
 31
6.124
  0
SEQEND
  5
250
330
1B8
100
AcDbEntity
  8
Points
  6
Continuous
  0
INSERT
  5
1BC
330
1F
100
AcDbEntity
  8
Points
  6
Continuous
100
AcDbBlockReference
 66
     1
  2
Point
 10
435034.75
 20
614200.925
 30
6.31
  0
ATTRIB
  5
1BD
330
1BC
100
AcDbEntity
  8
POINT_NUMBER
100
AcDbText
 10
435034.75
 20
614198.425
 30
6.31
 40
1.0
  1
20240716 080
 11
435034.75
 21
614198.925
 31
6.31
100
AcDbAttribute
  2
POINT_NUMBER
 70
     0
 74
     2
280
     0
 71
     1
 72
     0
 11
435034.75
 21
614198.925
 31
6.31
  0
ATTRIB
  5
1BE
330
1BC
100
AcDbEntity
  8
DESCRIPTION
100
AcDbText
 10
435034.75
 20
614200.425
 30
6.31
 40
1.0
  1
GONGULEID
 11
435034.75
 21
614200.925
 31
6.31
100
AcDbAttribute
  2
DESCRIPTION
 70
     0
 74
     2
280
     0
 71
     1
 72
     0
 11
435034.75
 21
614200.925
 31
6.31
  0
ATTRIB
  5
1BF
330
1BC
100
AcDbEntity
  8
ELEVATION
100
AcDbText
 10
435034.75
 20
614202.425
 30
6.31
 40
1.0
  1
6.31
 11
435034.75
 21
614202.925
 31
6.31
100
AcDbAttribute
  2
ELEVATION
 70
     0
 74
     2
280
     0
 71
     1
 72
     0
 11
435034.75
 21
614202.925
 31
6.31
  0
SEQEND
  5
251
330
1BC
100
AcDbEntity
  8
Points
  6
Continuous
  0
INSERT
  5
1C0
330
1F
100
AcDbEntity
  8
Points
  6
Continuous
100
AcDbBlockReference
 66
     1
  2
Point
 10
435094.972
 20
614195.817
 30
4.649
  0
ATTRIB
  5
1C1
330
1C0
100
AcDbEntity
  8
POINT_NUMBER
100
AcDbText
 10
435094.972
 20
614193.317
 30
4.649
 40
1.0
  1
20240716 081
 11
435094.972
 21
614193.817
 31
4.649
100
AcDbAttribute
  2
POINT_NUMBER
 70
     0
 74
     2
280
     0
 71
     1
 72
     0
 11
435094.972
 21
614193.817
 31
4.649
  0
ATTRIB
  5
1C2
330
1C0
100
AcDbEntity
  8
DESCRIPTION
100
AcDbText
 10
435094.972
 20
614195.317
 30
4.649
 40
1.0
  1
GONGULEID
 11
435094.972
 21
614195.817
 31
4.649
100
AcDbAttribute
  2
DESCRIPTION
 70
     0
 74
     2
280
     0
 71
     1
 72
     0
 11
435094.972
 21
614195.817
 31
4.649
  0
ATTRIB
  5
1C3
330
1C0
100
AcDbEntity
  8
ELEVATION
100
AcDbText
 10
435094.972
 20
614197.317
 30
4.649
 40
1.0
  1
4.649
 11
435094.972
 21
614197.817
 31
4.649
100
AcDbAttribute
  2
ELEVATION
 70
     0
 74
     2
280
     0
 71
     1
 72
     0
 11
435094.972
 21
614197.817
 31
4.649
  0
SEQEND
  5
252
330
1C0
100
AcDbEntity
  8
Points
  6
Continuous
  0
INSERT
  5
1C4
330
1F
100
AcDbEntity
  8
Points
  6
Continuous
100
AcDbBlockReference
 66
     1
  2
Point
 10
435122.276
 20
614191.328
 30
7.042
  0
ATTRIB
  5
1C5
330
1C4
100
AcDbEntity
  8
POINT_NUMBER
100
AcDbText
 10
435122.276
 20
614188.828
 30
7.042
 40
1.0
  1
20240716 082
 11
435122.276
 21
614189.328
 31
7.042
100
AcDbAttribute
  2
POINT_NUMBER
 70
     0
 74
     2
280
     0
 71
     1
 72
     0
 11
435122.276
 21
614189.328
 31
7.042
  0
ATTRIB
  5
1C6
330
1C4
100
AcDbEntity
  8
DESCRIPTION
100
AcDbText
 10
435122.276
 20
614190.828
 30
7.042
 40
1.0
  1
GONGULEID
 11
435122.276
 21
614191.328
 31
7.042
100
AcDbAttribute
  2
DESCRIPTION
 70
     0
 74
     2
280
     0
 71
     1
 72
     0
 11
435122.276
 21
614191.328
 31
7.042
  0
ATTRIB
  5
1C7
330
1C4
100
AcDbEntity
  8
ELEVATION
100
AcDbText
 10
435122.276
 20
614192.828
 30
7.042
 40
1.0
  1
7.042
 11
435122.276
 21
614193.328
 31
7.042
100
AcDbAttribute
  2
ELEVATION
 70
     0
 74
     2
280
     0
 71
     1
 72
     0
 11
435122.276
 21
614193.328
 31
7.042
  0
SEQEND
  5
253
330
1C4
100
AcDbEntity
  8
Points
  6
Continuous
  0
INSERT
  5
1C8
330
1F
100
AcDbEntity
  8
Points
  6
Continuous
100
AcDbBlockReference
 66
     1
  2
Point
 10
435145.652
 20
614201.396
 30
6.645
  0
ATTRIB
  5
1C9
330
1C8
100
AcDbEntity
  8
POINT_NUMBER
100
AcDbText
 10
435145.652
 20
614198.896
 30
6.645
 40
1.0
  1
20240716 083
 11
435145.652
 21
614199.396
 31
6.645
100
AcDbAttribute
  2
POINT_NUMBER
 70
     0
 74
     2
280
     0
 71
     1
 72
     0
 11
435145.652
 21
614199.396
 31
6.645
  0
ATTRIB
  5
1CA
330
1C8
100
AcDbEntity
  8
DESCRIPTION
100
AcDbText
 10
435145.652
 20
614200.896
 30
6.645
 40
1.0
  1
GONGULEID
 11
435145.652
 21
614201.396
 31
6.645
100
AcDbAttribute
  2
DESCRIPTION
 70
     0
 74
     2
280
     0
 71
     1
 72
     0
 11
435145.652
 21
614201.396
 31
6.645
  0
ATTRIB
  5
1CB
330
1C8
100
AcDbEntity
  8
ELEVATION
100
AcDbText
 10
435145.652
 20
614202.896
 30
6.645
 40
1.0
  1
6.645
 11
435145.652
 21
614203.396
 31
6.645
100
AcDbAttribute
  2
ELEVATION
 70
     0
 74
     2
280
     0
 71
     1
 72
     0
 11
435145.652
 21
614203.396
 31
6.645
  0
SEQEND
  5
254
330
1C8
100
AcDbEntity
  8
Points
  6
Continuous
  0
INSERT
  5
1CC
330
1F
100
AcDbEntity
  8
Points
  6
Continuous
100
AcDbBlockReference
 66
     1
  2
Point
 10
435157.186
 20
614200.373
 30
5.496
  0
ATTRIB
  5
1CD
330
1CC
100
AcDbEntity
  8
POINT_NUMBER
100
AcDbText
 10
435157.186
 20
614197.873
 30
5.496
 40
1.0
  1
20240716 084
 11
435157.186
 21
614198.373
 31
5.496
100
AcDbAttribute
  2
POINT_NUMBER
 70
     0
 74
     2
280
     0
 71
     1
 72
     0
 11
435157.186
 21
614198.373
 31
5.496
  0
ATTRIB
  5
1CE
330
1CC
100
AcDbEntity
  8
DESCRIPTION
100
AcDbText
 10
435157.186
 20
614199.873
 30
5.496
 40
1.0
  1
GONGULEID
 11
435157.186
 21
614200.373
 31
5.496
100
AcDbAttribute
  2
DESCRIPTION
 70
     0
 74
     2
280
     0
 71
     1
 72
     0
 11
435157.186
 21
614200.373
 31
5.496
  0
ATTRIB
  5
1CF
330
1CC
100
AcDbEntity
  8
ELEVATION
100
AcDbText
 10
435157.186
 20
614201.873
 30
5.496
 40
1.0
  1
5.496
 11
435157.186
 21
614202.373
 31
5.496
100
AcDbAttribute
  2
ELEVATION
 70
     0
 74
     2
280
     0
 71
     1
 72
     0
 11
435157.186
 21
614202.373
 31
5.496
  0
SEQEND
  5
255
330
1CC
100
AcDbEntity
  8
Points
  6
Continuous
  0
INSERT
  5
1D0
330
1F
100
AcDbEntity
  8
Points
  6
Continuous
100
AcDbBlockReference
 66
     1
  2
Point
 10
435166.166
 20
614192.581
 30
4.258
  0
ATTRIB
  5
1D1
330
1D0
100
AcDbEntity
  8
POINT_NUMBER
100
AcDbText
 10
435166.166
 20
614190.081
 30
4.258
 40
1.0
  1
20240716 085
 11
435166.166
 21
614190.581
 31
4.258
100
AcDbAttribute
  2
POINT_NUMBER
 70
     0
 74
     2
280
     0
 71
     1
 72
     0
 11
435166.166
 21
614190.581
 31
4.258
  0
ATTRIB
  5
1D2
330
1D0
100
AcDbEntity
  8
DESCRIPTION
100
AcDbText
 10
435166.166
 20
614192.081
 30
4.258
 40
1.0
  1
GONGULEID
 11
435166.166
 21
614192.581
 31
4.258
100
AcDbAttribute
  2
DESCRIPTION
 70
     0
 74
     2
280
     0
 71
     1
 72
     0
 11
435166.166
 21
614192.581
 31
4.258
  0
ATTRIB
  5
1D3
330
1D0
100
AcDbEntity
  8
ELEVATION
100
AcDbText
 10
435166.166
 20
614194.081
 30
4.258
 40
1.0
  1
4.258
 11
435166.166
 21
614194.581
 31
4.258
100
AcDbAttribute
  2
ELEVATION
 70
     0
 74
     2
280
     0
 71
     1
 72
     0
 11
435166.166
 21
614194.581
 31
4.258
  0
SEQEND
  5
256
330
1D0
100
AcDbEntity
  8
Points
  6
Continuous
  0
INSERT
  5
1D4
330
1F
100
AcDbEntity
  8
Points
  6
Continuous
100
AcDbBlockReference
 66
     1
  2
Point
 10
435447.895
 20
614333.537
 30
3.802
  0
ATTRIB
  5
1D5
330
1D4
100
AcDbEntity
  8
POINT_NUMBER
100
AcDbText
 10
435447.895
 20
614331.037
 30
3.802
 40
1.0
  1
20240716 086
 11
435447.895
 21
614331.537
 31
3.802
100
AcDbAttribute
  2
POINT_NUMBER
 70
     0
 74
     2
280
     0
 71
     1
 72
     0
 11
435447.895
 21
614331.537
 31
3.802
  0
ATTRIB
  5
1D6
330
1D4
100
AcDbEntity
  8
DESCRIPTION
100
AcDbText
 10
435447.895
 20
614333.037
 30
3.802
 40
1.0
  1
GONGULEID GATNAMOT
 11
435447.895
 21
614333.537
 31
3.802
100
AcDbAttribute
  2
DESCRIPTION
 70
     0
 74
     2
280
     0
 71
     1
 72
     0
 11
435447.895
 21
614333.537
 31
3.802
  0
ATTRIB
  5
1D7
330
1D4
100
AcDbEntity
  8
ELEVATION
100
AcDbText
 10
435447.895
 20
614335.037
 30
3.802
 40
1.0
  1
3.802
 11
435447.895
 21
614335.537
 31
3.802
100
AcDbAttribute
  2
ELEVATION
 70
     0
 74
     2
280
     0
 71
     1
 72
     0
 11
435447.895
 21
614335.537
 31
3.802
  0
SEQEND
  5
257
330
1D4
100
AcDbEntity
  8
Points
  6
Continuous
  0
INSERT
  5
1D8
330
1F
100
AcDbEntity
  8
Points
  6
Continuous
100
AcDbBlockReference
 66
     1
  2
Point
 10
435460.372
 20
614336.745
 30
3.824
  0
ATTRIB
  5
1D9
330
1D8
100
AcDbEntity
  8
POINT_NUMBER
100
AcDbText
 10
435460.372
 20
614334.245
 30
3.824
 40
1.0
  1
20240716 087
 11
435460.372
 21
614334.745
 31
3.824
100
AcDbAttribute
  2
POINT_NUMBER
 70
     0
 74
     2
280
     0
 71
     1
 72
     0
 11
435460.372
 21
614334.745
 31
3.824
  0
ATTRIB
  5
1DA
330
1D8
100
AcDbEntity
  8
DESCRIPTION
100
AcDbText
 10
435460.372
 20
614336.245
 30
3.824
 40
1.0
  1
GONGULEID
 11
435460.372
 21
614336.745
 31
3.824
100
AcDbAttribute
  2
DESCRIPTION
 70
     0
 74
     2
280
     0
 71
     1
 72
     0
 11
435460.372
 21
614336.745
 31
3.824
  0
ATTRIB
  5
1DB
330
1D8
100
AcDbEntity
  8
ELEVATION
100
AcDbText
 10
435460.372
 20
614338.245
 30
3.824
 40
1.0
  1
3.824
 11
435460.372
 21
614338.745
 31
3.824
100
AcDbAttribute
  2
ELEVATION
 70
     0
 74
     2
280
     0
 71
     1
 72
     0
 11
435460.372
 21
614338.745
 31
3.824
  0
SEQEND
  5
258
330
1D8
100
AcDbEntity
  8
Points
  6
Continuous
  0
INSERT
  5
1DC
330
1F
100
AcDbEntity
  8
Points
  6
Continuous
100
AcDbBlockReference
 66
     1
  2
Point
 10
435470.631
 20
614356.862
 30
4.426
  0
ATTRIB
  5
1DD
330
1DC
100
AcDbEntity
  8
POINT_NUMBER
100
AcDbText
 10
435470.631
 20
614354.362
 30
4.426
 40
1.0
  1
20240716 088
 11
435470.631
 21
614354.862
 31
4.426
100
AcDbAttribute
  2
POINT_NUMBER
 70
     0
 74
     2
280
     0
 71
     1
 72
     0
 11
435470.631
 21
614354.862
 31
4.426
  0
ATTRIB
  5
1DE
330
1DC
100
AcDbEntity
  8
DESCRIPTION
100
AcDbText
 10
435470.631
 20
614356.362
 30
4.426
 40
1.0
  1
GONGULEID
 11
435470.631
 21
614356.862
 31
4.426
100
AcDbAttribute
  2
DESCRIPTION
 70
     0
 74
     2
280
     0
 71
     1
 72
     0
 11
435470.631
 21
614356.862
 31
4.426
  0
ATTRIB
  5
1DF
330
1DC
100
AcDbEntity
  8
ELEVATION
100
AcDbText
 10
435470.631
 20
614358.362
 30
4.426
 40
1.0
  1
4.426
 11
435470.631
 21
614358.862
 31
4.426
100
AcDbAttribute
  2
ELEVATION
 70
     0
 74
     2
280
     0
 71
     1
 72
     0
 11
435470.631
 21
614358.862
 31
4.426
  0
SEQEND
  5
259
330
1DC
100
AcDbEntity
  8
Points
  6
Continuous
  0
INSERT
  5
1E0
330
1F
100
AcDbEntity
  8
Points
  6
Continuous
100
AcDbBlockReference
 66
     1
  2
Point
 10
435496.56
 20
614380.543
 30
3.497
  0
ATTRIB
  5
1E1
330
1E0
100
AcDbEntity
  8
POINT_NUMBER
100
AcDbText
 10
435496.56
 20
614378.043
 30
3.497
 40
1.0
  1
20240716 089
 11
435496.56
 21
614378.543
 31
3.497
100
AcDbAttribute
  2
POINT_NUMBER
 70
     0
 74
     2
280
     0
 71
     1
 72
     0
 11
435496.56
 21
614378.543
 31
3.497
  0
ATTRIB
  5
1E2
330
1E0
100
AcDbEntity
  8
DESCRIPTION
100
AcDbText
 10
435496.56
 20
614380.043
 30
3.497
 40
1.0
  1
GONGULEID
 11
435496.56
 21
614380.543
 31
3.497
100
AcDbAttribute
  2
DESCRIPTION
 70
     0
 74
     2
280
     0
 71
     1
 72
     0
 11
435496.56
 21
614380.543
 31
3.497
  0
ATTRIB
  5
1E3
330
1E0
100
AcDbEntity
  8
ELEVATION
100
AcDbText
 10
435496.56
 20
614382.043
 30
3.497
 40
1.0
  1
3.497
 11
435496.56
 21
614382.543
 31
3.497
100
AcDbAttribute
  2
ELEVATION
 70
     0
 74
     2
280
     0
 71
     1
 72
     0
 11
435496.56
 21
614382.543
 31
3.497
  0
SEQEND
  5
25A
330
1E0
100
AcDbEntity
  8
Points
  6
Continuous
  0
INSERT
  5
1E4
330
1F
100
AcDbEntity
  8
Points
  6
Continuous
100
AcDbBlockReference
 66
     1
  2
Point
 10
435518.186
 20
614404.622
 30
5.323
  0
ATTRIB
  5
1E5
330
1E4
100
AcDbEntity
  8
POINT_NUMBER
100
AcDbText
 10
435518.186
 20
614402.122
 30
5.323
 40
1.0
  1
20240716 090
 11
435518.186
 21
614402.622
 31
5.323
100
AcDbAttribute
  2
POINT_NUMBER
 70
     0
 74
     2
280
     0
 71
     1
 72
     0
 11
435518.186
 21
614402.622
 31
5.323
  0
ATTRIB
  5
1E6
330
1E4
100
AcDbEntity
  8
DESCRIPTION
100
AcDbText
 10
435518.186
 20
614404.122
 30
5.323
 40
1.0
  1
GONGULEID
 11
435518.186
 21
614404.622
 31
5.323
100
AcDbAttribute
  2
DESCRIPTION
 70
     0
 74
     2
280
     0
 71
     1
 72
     0
 11
435518.186
 21
614404.622
 31
5.323
  0
ATTRIB
  5
1E7
330
1E4
100
AcDbEntity
  8
ELEVATION
100
AcDbText
 10
435518.186
 20
614406.122
 30
5.323
 40
1.0
  1
5.323
 11
435518.186
 21
614406.622
 31
5.323
100
AcDbAttribute
  2
ELEVATION
 70
     0
 74
     2
280
     0
 71
     1
 72
     0
 11
435518.186
 21
614406.622
 31
5.323
  0
SEQEND
  5
25B
330
1E4
100
AcDbEntity
  8
Points
  6
Continuous
  0
INSERT
  5
1E8
330
1F
100
AcDbEntity
  8
Points
  6
Continuous
100
AcDbBlockReference
 66
     1
  2
Point
 10
435527.004
 20
614445.712
 30
7.2
  0
ATTRIB
  5
1E9
330
1E8
100
AcDbEntity
  8
POINT_NUMBER
100
AcDbText
 10
435527.004
 20
614443.212
 30
7.2
 40
1.0
  1
20240716 091
 11
435527.004
 21
614443.712
 31
7.2
100
AcDbAttribute
  2
POINT_NUMBER
 70
     0
 74
     2
280
     0
 71
     1
 72
     0
 11
435527.004
 21
614443.712
 31
7.2
  0
ATTRIB
  5
1EA
330
1E8
100
AcDbEntity
  8
DESCRIPTION
100
AcDbText
 10
435527.004
 20
614445.212
 30
7.2
 40
1.0
  1
GONGULEID
 11
435527.004
 21
614445.712
 31
7.2
100
AcDbAttribute
  2
DESCRIPTION
 70
     0
 74
     2
280
     0
 71
     1
 72
     0
 11
435527.004
 21
614445.712
 31
7.2
  0
ATTRIB
  5
1EB
330
1E8
100
AcDbEntity
  8
ELEVATION
100
AcDbText
 10
435527.004
 20
614447.212
 30
7.2
 40
1.0
  1
7.2
 11
435527.004
 21
614447.712
 31
7.2
100
AcDbAttribute
  2
ELEVATION
 70
     0
 74
     2
280
     0
 71
     1
 72
     0
 11
435527.004
 21
614447.712
 31
7.2
  0
SEQEND
  5
25C
330
1E8
100
AcDbEntity
  8
Points
  6
Continuous
  0
INSERT
  5
1EC
330
1F
100
AcDbEntity
  8
Points
  6
Continuous
100
AcDbBlockReference
 66
     1
  2
Point
 10
435502.666
 20
614447.486
 30
6.78
  0
ATTRIB
  5
1ED
330
1EC
100
AcDbEntity
  8
POINT_NUMBER
100
AcDbText
 10
435502.666
 20
614444.986
 30
6.78
 40
1.0
  1
20240716 092
 11
435502.666
 21
614445.486
 31
6.78
100
AcDbAttribute
  2
POINT_NUMBER
 70
     0
 74
     2
280
     0
 71
     1
 72
     0
 11
435502.666
 21
614445.486
 31
6.78
  0
ATTRIB
  5
1EE
330
1EC
100
AcDbEntity
  8
DESCRIPTION
100
AcDbText
 10
435502.666
 20
614446.986
 30
6.78
 40
1.0
  1
GONGULEID
 11
435502.666
 21
614447.486
 31
6.78
100
AcDbAttribute
  2
DESCRIPTION
 70
     0
 74
     2
280
     0
 71
     1
 72
     0
 11
435502.666
 21
614447.486
 31
6.78
  0
ATTRIB
  5
1EF
330
1EC
100
AcDbEntity
  8
ELEVATION
100
AcDbText
 10
435502.666
 20
614448.986
 30
6.78
 40
1.0
  1
6.78
 11
435502.666
 21
614449.486
 31
6.78
100
AcDbAttribute
  2
ELEVATION
 70
     0
 74
     2
280
     0
 71
     1
 72
     0
 11
435502.666
 21
614449.486
 31
6.78
  0
SEQEND
  5
25D
330
1EC
100
AcDbEntity
  8
Points
  6
Continuous
  0
INSERT
  5
1F0
330
1F
100
AcDbEntity
  8
Points
  6
Continuous
100
AcDbBlockReference
 66
     1
  2
Point
 10
435490.159
 20
614449.153
 30
5.754
  0
ATTRIB
  5
1F1
330
1F0
100
AcDbEntity
  8
POINT_NUMBER
100
AcDbText
 10
435490.159
 20
614446.653
 30
5.754
 40
1.0
  1
20240716 093
 11
435490.159
 21
614447.153
 31
5.754
100
AcDbAttribute
  2
POINT_NUMBER
 70
     0
 74
     2
280
     0
 71
     1
 72
     0
 11
435490.159
 21
614447.153
 31
5.754
  0
ATTRIB
  5
1F2
330
1F0
100
AcDbEntity
  8
DESCRIPTION
100
AcDbText
 10
435490.159
 20
614448.653
 30
5.754
 40
1.0
  1
GONGULEID
 11
435490.159
 21
614449.153
 31
5.754
100
AcDbAttribute
  2
DESCRIPTION
 70
     0
 74
     2
280
     0
 71
     1
 72
     0
 11
435490.159
 21
614449.153
 31
5.754
  0
ATTRIB
  5
1F3
330
1F0
100
AcDbEntity
  8
ELEVATION
100
AcDbText
 10
435490.159
 20
614450.653
 30
5.754
 40
1.0
  1
5.754
 11
435490.159
 21
614451.153
 31
5.754
100
AcDbAttribute
  2
ELEVATION
 70
     0
 74
     2
280
     0
 71
     1
 72
     0
 11
435490.159
 21
614451.153
 31
5.754
  0
SEQEND
  5
25E
330
1F0
100
AcDbEntity
  8
Points
  6
Continuous
  0
INSERT
  5
1F4
330
1F
100
AcDbEntity
  8
Points
  6
Continuous
100
AcDbBlockReference
 66
     1
  2
Point
 10
435442.685
 20
614463.023
 30
4.455
  0
ATTRIB
  5
1F5
330
1F4
100
AcDbEntity
  8
POINT_NUMBER
100
AcDbText
 10
435442.685
 20
614460.523
 30
4.455
 40
1.0
  1
20240716 094
 11
435442.685
 21
614461.023
 31
4.455
100
AcDbAttribute
  2
POINT_NUMBER
 70
     0
 74
     2
280
     0
 71
     1
 72
     0
 11
435442.685
 21
614461.023
 31
4.455
  0
ATTRIB
  5
1F6
330
1F4
100
AcDbEntity
  8
DESCRIPTION
100
AcDbText
 10
435442.685
 20
614462.523
 30
4.455
 40
1.0
  1
GONGULEID
 11
435442.685
 21
614463.023
 31
4.455
100
AcDbAttribute
  2
DESCRIPTION
 70
     0
 74
     2
280
     0
 71
     1
 72
     0
 11
435442.685
 21
614463.023
 31
4.455
  0
ATTRIB
  5
1F7
330
1F4
100
AcDbEntity
  8
ELEVATION
100
AcDbText
 10
435442.685
 20
614464.523
 30
4.455
 40
1.0
  1
4.455
 11
435442.685
 21
614465.023
 31
4.455
100
AcDbAttribute
  2
ELEVATION
 70
     0
 74
     2
280
     0
 71
     1
 72
     0
 11
435442.685
 21
614465.023
 31
4.455
  0
SEQEND
  5
25F
330
1F4
100
AcDbEntity
  8
Points
  6
Continuous
  0
INSERT
  5
1F8
330
1F
100
AcDbEntity
  8
Points
  6
Continuous
100
AcDbBlockReference
 66
     1
  2
Point
 10
435389.175
 20
614470.712
 30
4.786
  0
ATTRIB
  5
1F9
330
1F8
100
AcDbEntity
  8
POINT_NUMBER
100
AcDbText
 10
435389.175
 20
614468.212
 30
4.786
 40
1.0
  1
20240716 095
 11
435389.175
 21
614468.712
 31
4.786
100
AcDbAttribute
  2
POINT_NUMBER
 70
     0
 74
     2
280
     0
 71
     1
 72
     0
 11
435389.175
 21
614468.712
 31
4.786
  0
ATTRIB
  5
1FA
330
1F8
100
AcDbEntity
  8
DESCRIPTION
100
AcDbText
 10
435389.175
 20
614470.212
 30
4.786
 40
1.0
  1
GONGULEID
 11
435389.175
 21
614470.712
 31
4.786
100
AcDbAttribute
  2
DESCRIPTION
 70
     0
 74
     2
280
     0
 71
     1
 72
     0
 11
435389.175
 21
614470.712
 31
4.786
  0
ATTRIB
  5
1FB
330
1F8
100
AcDbEntity
  8
ELEVATION
100
AcDbText
 10
435389.175
 20
614472.212
 30
4.786
 40
1.0
  1
4.786
 11
435389.175
 21
614472.712
 31
4.786
100
AcDbAttribute
  2
ELEVATION
 70
     0
 74
     2
280
     0
 71
     1
 72
     0
 11
435389.175
 21
614472.712
 31
4.786
  0
SEQEND
  5
260
330
1F8
100
AcDbEntity
  8
Points
  6
Continuous
  0
INSERT
  5
1FC
330
1F
100
AcDbEntity
  8
Points
  6
Continuous
100
AcDbBlockReference
 66
     1
  2
Point
 10
435367.157
 20
614473.963
 30
5.146
  0
ATTRIB
  5
1FD
330
1FC
100
AcDbEntity
  8
POINT_NUMBER
100
AcDbText
 10
435367.157
 20
614471.463
 30
5.146
 40
1.0
  1
20240716 096
 11
435367.157
 21
614471.963
 31
5.146
100
AcDbAttribute
  2
POINT_NUMBER
 70
     0
 74
     2
280
     0
 71
     1
 72
     0
 11
435367.157
 21
614471.963
 31
5.146
  0
ATTRIB
  5
1FE
330
1FC
100
AcDbEntity
  8
DESCRIPTION
100
AcDbText
 10
435367.157
 20
614473.463
 30
5.146
 40
1.0
  1
GONGULEID
 11
435367.157
 21
614473.963
 31
5.146
100
AcDbAttribute
  2
DESCRIPTION
 70
     0
 74
     2
280
     0
 71
     1
 72
     0
 11
435367.157
 21
614473.963
 31
5.146
  0
ATTRIB
  5
1FF
330
1FC
100
AcDbEntity
  8
ELEVATION
100
AcDbText
 10
435367.157
 20
614475.463
 30
5.146
 40
1.0
  1
5.146
 11
435367.157
 21
614475.963
 31
5.146
100
AcDbAttribute
  2
ELEVATION
 70
     0
 74
     2
280
     0
 71
     1
 72
     0
 11
435367.157
 21
614475.963
 31
5.146
  0
SEQEND
  5
261
330
1FC
100
AcDbEntity
  8
Points
  6
Continuous
  0
ENDSEC
  0
SECTION
  2
OBJECTS
  0
DICTIONARY
  5
C
330
0
100
AcDbDictionary
281
     1
  3
ACAD_DETAILVIEWSTYLE
350
269
  3
ACAD_GROUP
350
D
  3
ACAD_LAYOUT
350
1A
  3
ACAD_MATERIAL
350
43
  3
ACAD_MLEADERSTYLE
350
6B
  3
ACAD_MLINESTYLE
350
17
  3
ACAD_PLOTSETTINGS
350
19
  3
ACAD_PLOTSTYLENAME
350
E
  3
ACAD_SCALELIST
350
47
  3
ACAD_SECTIONVIEWSTYLE
350
26A
  3
ACAD_TABLESTYLE
350
69
  3
ACAD_VISUALSTYLE
350
2A
  3
ACDB_RECOMPOSE_DATA
350
266
  3
AcDbVariableDictionary
350
262
  0
SUN
  5
6D
330
29
100
AcDbSun
 90
        1
290
     0
 63
     7
421
 16777215
 40
1.0
291
     1
 91
  2455826
 92
 54000000
292
     0
 70
     2
 71
   256
280
     1
  0
DICTIONARY
  5
269
102
{ACAD_REACTORS
330
C
102
}
330
C
100
AcDbDictionary
281
     1
  0
DICTIONARY
  5
D
102
{ACAD_REACTORS
330
C
102
}
330
C
100
AcDbDictionary
281
     1
  0
DICTIONARY
  5
1A
102
{ACAD_REACTORS
330
C
102
}
330
C
100
AcDbDictionary
281
     1
  3
Layout1
350
1E
  3
Layout2
350
26
  3
Model
350
22
  0
DICTIONARY
  5
43
102
{ACAD_REACTORS
330
C
102
}
330
C
100
AcDbDictionary
281
     1
  3
ByBlock
350
45
  3
ByLayer
350
44
  3
Global
350
46
  0
DICTIONARY
  5
6B
102
{ACAD_REACTORS
330
C
102
}
330
C
100
AcDbDictionary
281
     1
  3
Standard
350
6C
  0
DICTIONARY
  5
17
102
{ACAD_REACTORS
330
C
102
}
330
C
100
AcDbDictionary
281
     1
  3
Standard
350
18
  0
DICTIONARY
  5
19
102
{ACAD_REACTORS
330
C
102
}
330
C
100
AcDbDictionary
281
     1
  0
ACDBDICTIONARYWDFLT
  5
E
102
{ACAD_REACTORS
330
C
102
}
330
C
100
AcDbDictionary
281
     1
  3
Normal
350
F
100
AcDbDictionaryWithDefault
340
F
  0
DICTIONARY
  5
47
102
{ACAD_REACTORS
330
C
102
}
330
C
100
AcDbDictionary
281
     1
  3
A0
350
48
  3
A1
350
49
  3
A2
350
4A
  3
A3
350
4B
  3
A4
350
4C
  3
A5
350
4D
  3
A6
350
4E
  3
A7
350
4F
  3
A8
350
50
  3
A9
350
51
  3
B0
350
52
  3
B1
350
53
  3
B2
350
54
  3
B3
350
55
  3
B4
350
56
  3
B5
350
57
  3
B6
350
58
  3
B7
350
59
  3
B8
350
5A
  3
B9
350
5B
  3
C0
350
5C
  3
C1
350
5D
  3
C2
350
5E
  3
C3
350
5F
  3
C4
350
60
  3
C5
350
61
  3
C6
350
62
  3
C7
350
63
  3
C8
350
64
  3
C9
350
65
  3
D0
350
66
  3
D1
350
67
  3
D2
350
68
  0
DICTIONARY
  5
26A
102
{ACAD_REACTORS
330
C
102
}
330
C
100
AcDbDictionary
281
     1
  0
DICTIONARY
  5
69
102
{ACAD_REACTORS
330
C
102
}
330
C
100
AcDbDictionary
281
     1
  3
Standard
350
6A
  0
DICTIONARY
  5
2A
102
{ACAD_REACTORS
330
C
102
}
330
C
100
AcDbDictionary
281
     1
  3
2dWireframe
350
2F
  3
Basic
350
32
  3
Brighten
350
36
  3
ColorChange
350
3A
  3
Conceptual
350
34
  3
Dim
350
35
  3
EdgeColorOff
350
3D
  3
Facepattern
350
39
  3
Flat
350
2B
  3
FlatWithEdges
350
2C
  3
Gouraud
350
2D
  3
GouraudWithEdges
350
2E
  3
Hidden
350
31
  3
JitterOff
350
3B
  3
Linepattern
350
38
  3
OverhangOff
350
3C
  3
Realistic
350
33
  3
Shaded
350
42
  3
Shaded with edges
350
41
  3
Shades of Gray
350
3E
  3
Sketchy
350
3F
  3
Thicken
350
37
  3
Wireframe
350
30
  3
X-Ray
350
40
  0
XRECORD
  5
266
102
{ACAD_REACTORS
330
C
102
}
330
C
100
AcDbXrecord
280
     1
 90
        1
330
6A
  0
DICTIONARY
  5
262
102
{ACAD_REACTORS
330
C
102
}
330
C
100
AcDbDictionary
281
     1
  3
CANNOSCALE
350
263
  3
CENTEREXE
350
26B
  3
CENTERLTYPEFILE
350
26C
  3
CMLEADERSTYLE
350
268
  3
CTABLESTYLE
350
267
  0
LAYOUT
  5
1E
102
{ACAD_REACTORS
330
1A
102
}
330
1A
100
AcDbPlotSettings
  1

  2
none_device
  4

  6

 40
0.0
 41
0.0
 42
0.0
 43
0.0
 44
0.0
 45
0.0
 46
0.0
 47
0.0
 48
0.0
 49
0.0
140
0.0
141
0.0
142
1.0
143
1.0
 70
   688
 72
     1
 73
     0
 74
     5
  7

 75
    16
 76
     0
 77
     2
 78
   300
147
1.0
148
0.0
149
0.0
100
AcDbLayout
  1
Layout1
 70
     1
 71
     1
 10
0.0
 20
0.0
 11
420.0
 21
297.0
 12
0.0
 22
0.0
 32
0.0
 14
1.000000000000000E+20
 24
1.000000000000000E+20
 34
1.000000000000000E+20
 15
-1.000000000000000E+20
 25
-1.000000000000000E+20
 35
-1.000000000000000E+20
146
0.0
 13
0.0
 23
0.0
 33
0.0
 16
1.0
 26
0.0
 36
0.0
 17
0.0
 27
1.0
 37
0.0
 76
     0
330
1B
  0
LAYOUT
  5
26
102
{ACAD_REACTORS
330
1A
102
}
330
1A
100
AcDbPlotSettings
  1

  2
none_device
  4

  6

 40
0.0
 41
0.0
 42
0.0
 43
0.0
 44
0.0
 45
0.0
 46
0.0
 47
0.0
 48
0.0
 49
0.0
140
0.0
141
0.0
142
1.0
143
1.0
 70
   688
 72
     1
 73
     0
 74
     5
  7

 75
    16
 76
     0
 77
     2
 78
   300
147
1.0
148
0.0
149
0.0
100
AcDbLayout
  1
Layout2
 70
     1
 71
     2
 10
0.0
 20
0.0
 11
0.0
 21
0.0
 12
0.0
 22
0.0
 32
0.0
 14
0.0
 24
0.0
 34
0.0
 15
0.0
 25
0.0
 35
0.0
146
0.0
 13
0.0
 23
0.0
 33
0.0
 16
1.0
 26
0.0
 36
0.0
 17
0.0
 27
1.0
 37
0.0
 76
     0
330
23
  0
LAYOUT
  5
22
102
{ACAD_REACTORS
330
1A
102
}
330
1A
100
AcDbPlotSettings
  1

  2
none_device
  4
Letter_(8.50_x_11.00_Inches)
  6

 40
6.35
 41
6.35
 42
6.35000508
 43
6.35000508
 44
215.9
 45
279.4
 46
0.0
 47
0.0
 48
0.0
 49
0.0
140
0.0
141
0.0
142
1.0
143
1.0
 70
  1712
 72
     1
 73
     0
 74
     0
  7

 75
     0
 76
     0
 77
     2
 78
   300
147
1.0
148
0.0
149
0.0
100
AcDbLayout
  1
Model
 70
     1
 71
     0
 10
0.0
 20
0.0
 11
420.0
 21
297.0
 12
0.0
 22
0.0
 32
0.0
 14
0.144359375
 24
-0.01
 34
1.357
 15
435527.004
 25
614616.584
 35
7.636
146
0.0
 13
0.0
 23
0.0
 33
0.0
 16
1.0
 26
0.0
 36
0.0
 17
0.0
 27
1.0
 37
0.0
 76
     0
330
1F
331
29
  0
MATERIAL
  5
45
102
{ACAD_REACTORS
330
43
102
}
330
43
100
AcDbMaterial
  1
ByBlock
 72
     1
 94
      127
  0
MATERIAL
  5
44
102
{ACAD_REACTORS
330
43
102
}
330
43
100
AcDbMaterial
  1
ByLayer
 72
     1
 94
      127
  0
MATERIAL
  5
46
102
{ACAD_REACTORS
330
43
102
}
330
43
100
AcDbMaterial
  1
Global
 72
     1
 94
      127
  0
MLEADERSTYLE
  5
6C
102
{ACAD_REACTORS
330
6B
102
}
330
6B
100
AcDbMLeaderStyle
179
     2
170
     2
171
     1
172
     0
 90
        2
 40
0.0
 41
0.0
173
     1
 91
-1056964608
340
14
 92
       -2
290
     1
 42
2.0
291
     1
 43
8.0
  3
Standard
341
0
 44
4.0
300

342
11
174
     1
178
     6
175
     1
176
     0
 93
-1056964608
 45
4.0
292
     0
297
     0
 46
4.0
343
0
 94
-1056964608
 47
1.0
 49
1.0
140
1.0
293
     1
141
0.0
294
     1
177
     0
142
1.0
295
     0
296
     0
143
3.75
271
     0
272
     9
273
     9
298
     0
  0
MLINESTYLE
  5
18
102
{ACAD_REACTORS
330
17
102
}
330
17
100
AcDbMlineStyle
  2
Standard
 70
     0
  3

 62
   256
 51
90.0
 52
90.0
 71
     2
 49
0.5
 62
   256
  6
BYLAYER
 49
-0.5
 62
   256
  6
BYLAYER
  0
ACDBPLACEHOLDER
  5
F
102
{ACAD_REACTORS
330
E
102
}
330
E
  0
SCALE
  5
48
102
{ACAD_REACTORS
330
47
102
}
330
47
100
AcDbScale
 70
     0
300
1:1
140
1.0
141
1.0
290
     1
  0
SCALE
  5
49
102
{ACAD_REACTORS
330
47
102
}
330
47
100
AcDbScale
 70
     0
300
1:2
140
1.0
141
2.0
290
     0
  0
SCALE
  5
4A
102
{ACAD_REACTORS
330
47
102
}
330
47
100
AcDbScale
 70
     0
300
1:4
140
1.0
141
4.0
290
     0
  0
SCALE
  5
4B
102
{ACAD_REACTORS
330
47
102
}
330
47
100
AcDbScale
 70
     0
300
1:5
140
1.0
141
5.0
290
     0
  0
SCALE
  5
4C
102
{ACAD_REACTORS
330
47
102
}
330
47
100
AcDbScale
 70
     0
300
1:8
140
1.0
141
8.0
290
     0
  0
SCALE
  5
4D
102
{ACAD_REACTORS
330
47
102
}
330
47
100
AcDbScale
 70
     0
300
1:10
140
1.0
141
10.0
290
     0
  0
SCALE
  5
4E
102
{ACAD_REACTORS
330
47
102
}
330
47
100
AcDbScale
 70
     0
300
1:16
140
1.0
141
16.0
290
     0
  0
SCALE
  5
4F
102
{ACAD_REACTORS
330
47
102
}
330
47
100
AcDbScale
 70
     0
300
1:20
140
1.0
141
20.0
290
     0
  0
SCALE
  5
50
102
{ACAD_REACTORS
330
47
102
}
330
47
100
AcDbScale
 70
     0
300
1:30
140
1.0
141
30.0
290
     0
  0
SCALE
  5
51
102
{ACAD_REACTORS
330
47
102
}
330
47
100
AcDbScale
 70
     0
300
1:40
140
1.0
141
40.0
290
     0
  0
SCALE
  5
52
102
{ACAD_REACTORS
330
47
102
}
330
47
100
AcDbScale
 70
     0
300
1:50
140
1.0
141
50.0
290
     0
  0
SCALE
  5
53
102
{ACAD_REACTORS
330
47
102
}
330
47
100
AcDbScale
 70
     0
300
1:100
140
1.0
141
100.0
290
     0
  0
SCALE
  5
54
102
{ACAD_REACTORS
330
47
102
}
330
47
100
AcDbScale
 70
     0
300
2:1
140
2.0
141
1.0
290
     0
  0
SCALE
  5
55
102
{ACAD_REACTORS
330
47
102
}
330
47
100
AcDbScale
 70
     0
300
4:1
140
4.0
141
1.0
290
     0
  0
SCALE
  5
56
102
{ACAD_REACTORS
330
47
102
}
330
47
100
AcDbScale
 70
     0
300
8:1
140
8.0
141
1.0
290
     0
  0
SCALE
  5
57
102
{ACAD_REACTORS
330
47
102
}
330
47
100
AcDbScale
 70
     0
300
10:1
140
10.0
141
1.0
290
     0
  0
SCALE
  5
58
102
{ACAD_REACTORS
330
47
102
}
330
47
100
AcDbScale
 70
     0
300
100:1
140
100.0
141
1.0
290
     0
  0
SCALE
  5
59
102
{ACAD_REACTORS
330
47
102
}
330
47
100
AcDbScale
 70
     0
300
1/128" = 1'-0"
140
0.0078125
141
12.0
290
     0
  0
SCALE
  5
5A
102
{ACAD_REACTORS
330
47
102
}
330
47
100
AcDbScale
 70
     0
300
1/64" = 1'-0"
140
0.015625
141
12.0
290
     0
  0
SCALE
  5
5B
102
{ACAD_REACTORS
330
47
102
}
330
47
100
AcDbScale
 70
     0
300
1/32" = 1'-0"
140
0.03125
141
12.0
290
     0
  0
SCALE
  5
5C
102
{ACAD_REACTORS
330
47
102
}
330
47
100
AcDbScale
 70
     0
300
1/16" = 1'-0"
140
0.0625
141
12.0
290
     0
  0
SCALE
  5
5D
102
{ACAD_REACTORS
330
47
102
}
330
47
100
AcDbScale
 70
     0
300
3/32" = 1'-0"
140
0.09375
141
12.0
290
     0
  0
SCALE
  5
5E
102
{ACAD_REACTORS
330
47
102
}
330
47
100
AcDbScale
 70
     0
300
1/8" = 1'-0"
140
0.125
141
12.0
290
     0
  0
SCALE
  5
5F
102
{ACAD_REACTORS
330
47
102
}
330
47
100
AcDbScale
 70
     0
300
3/16" = 1'-0"
140
0.1875
141
12.0
290
     0
  0
SCALE
  5
60
102
{ACAD_REACTORS
330
47
102
}
330
47
100
AcDbScale
 70
     0
300
1/4" = 1'-0"
140
0.25
141
12.0
290
     0
  0
SCALE
  5
61
102
{ACAD_REACTORS
330
47
102
}
330
47
100
AcDbScale
 70
     0
300
3/8" = 1'-0"
140
0.375
141
12.0
290
     0
  0
SCALE
  5
62
102
{ACAD_REACTORS
330
47
102
}
330
47
100
AcDbScale
 70
     0
300
1/2" = 1'-0"
140
0.5
141
12.0
290
     0
  0
SCALE
  5
63
102
{ACAD_REACTORS
330
47
102
}
330
47
100
AcDbScale
 70
     0
300
3/4" = 1'-0"
140
0.75
141
12.0
290
     0
  0
SCALE
  5
64
102
{ACAD_REACTORS
330
47
102
}
330
47
100
AcDbScale
 70
     0
300
1" = 1'-0"
140
1.0
141
12.0
290
     0
  0
SCALE
  5
65
102
{ACAD_REACTORS
330
47
102
}
330
47
100
AcDbScale
 70
     0
300
1-1/2" = 1'-0"
140
1.5
141
12.0
290
     0
  0
SCALE
  5
66
102
{ACAD_REACTORS
330
47
102
}
330
47
100
AcDbScale
 70
     0
300
3" = 1'-0"
140
3.0
141
12.0
290
     0
  0
SCALE
  5
67
102
{ACAD_REACTORS
330
47
102
}
330
47
100
AcDbScale
 70
     0
300
6" = 1'-0"
140
6.0
141
12.0
290
     0
  0
SCALE
  5
68
102
{ACAD_REACTORS
330
47
102
}
330
47
100
AcDbScale
 70
     0
300
1'-0" = 1'-0"
140
12.0
141
12.0
290
     0
  0
TABLESTYLE
  5
6A
102
{ACAD_REACTORS
330
69
102
}
102
{ACAD_XDICTIONARY
360
264
102
}
330
69
100
AcDbTableStyle
  3
Standard
 70
     0
 71
     0
 40
0.06
 41
0.06
280
     0
281
     0
  7
Standard
140
4.5
170
     2
 62
     0
 63
   257
283
     0
 90
        4
 91
        0
  1

274
    -2
284
     1
 64
     0
275
    -2
285
     1
 65
     0
276
    -2
286
     1
 66
     0
277
    -2
287
     1
 67
     0
278
    -2
288
     1
 68
     0
279
    -2
289
     1
 69
     0
  7
Standard
140
6.0
170
     5
 62
     0
 63
   257
283
     0
 90
        4
 91
        0
  1

274
    -2
284
     1
 64
     0
275
    -2
285
     1
 65
     0
276
    -2
286
     1
 66
     0
277
    -2
287
     1
 67
     0
278
    -2
288
     1
 68
     0
279
    -2
289
     1
 69
     0
  7
Standard
140
4.5
170
     5
 62
     0
 63
   257
283
     0
 90
        4
 91
        0
  1

274
    -2
284
     1
 64
     0
275
    -2
285
     1
 65
     0
276
    -2
286
     1
 66
     0
277
    -2
287
     1
 67
     0
278
    -2
288
     1
 68
     0
279
    -2
289
     1
 69
     0
  0
VISUALSTYLE
  5
2F
102
{ACAD_REACTORS
330
2A
102
}
330
2A
100
AcDbVisualStyle
  2
2dWireframe
 70
     4
177
     3
291
     0
 70
    58
 90
        0
176
     1
 90
        2
176
     1
 90
        0
176
     1
 90
        0
176
     1
 40
0.6
176
     1
 40
30.0
176
     1
 62
     7
420
 16777215
176
     1
 90
        1
176
     1
 90
        4
176
     1
 62
     7
176
     1
 62
   257
176
     1
 90
        1
176
     1
 90
        1
176
     1
 40
1.0
176
     1
 90
        0
176
     1
 62
   257
176
     1
 40
1.0
176
     1
 90
        1
176
     1
 90
        6
176
     1
 90
        2
176
     1
 62
     7
176
     1
 90
        5
176
     1
 90
        0
176
     1
 90
        0
176
     1
290
     0
176
     1
 90
        1
176
     1
 40
0.0
176
     1
 90
        0
176
     1
290
     1
176
     1
290
     1
176
     1
290
     0
176
     1
290
     0
176
     1
290
     0
176
     1
290
     0
176
     1
290
     0
176
     1
290
     0
176
     1
290
     0
176
     1
 90
       50
176
     1
 40
0.0
176
     1
 40
1.0
176
     1
 90
        0
176
     1
 62
    18
420
        0
176
     1
 90
       50
176
     1
 90
        3
176
     1
 62
     5
420
      255
176
     1
290
     0
176
     1
 90
       50
176
     1
 90
       50
176
     1
 90
       50
176
     1
290
     0
176
     1
 90
       50
176
     1
 62
   256
176
     0
 40
1.0
176
     0
 90
        2
176
     1
  1
strokes_ogs.tif
176
     1
290
     0
176
     1
 40
1.0
176
     1
 40
1.0
176
     1
  0
VISUALSTYLE
  5
32
102
{ACAD_REACTORS
330
2A
102
}
330
2A
100
AcDbVisualStyle
  2
Basic
 70
     7
177
     3
291
     1
 70
    58
 90
        1
176
     1
 90
        0
176
     1
 90
        1
176
     1
 90
        0
176
     1
 40
0.6
176
     1
 40
30.0
176
     1
 62
     7
420
 16777215
176
     1
 90
        0
176
     1
 90
        4
176
     1
 62
     7
176
     1
 62
   257
176
     1
 90
        1
176
     1
 90
        1
176
     1
 40
1.0
176
     1
 90
        8
176
     1
 62
     7
176
     1
 40
1.0
176
     1
 90
        1
176
     1
 90
        6
176
     1
 90
        2
176
     1
 62
     7
176
     1
 90
        5
176
     1
 90
        0
176
     1
 90
        0
176
     1
290
     0
176
     1
 90
        1
176
     1
 40
0.0
176
     1
 90
        0
176
     1
290
     0
176
     1
290
     1
176
     1
290
     1
176
     1
290
     0
176
     1
290
     0
176
     1
290
     0
176
     1
290
     0
176
     1
290
     0
176
     1
290
     0
176
     1
 90
       50
176
     1
 40
0.0
176
     1
 40
1.0
176
     1
 90
        0
176
     1
 62
    18
420
        0
176
     1
 90
       50
176
     1
 90
        3
176
     1
 62
     5
420
      255
176
     1
290
     0
176
     1
 90
       50
176
     1
 90
       50
176
     1
 90
       50
176
     1
290
     0
176
     1
 90
       50
176
     1
 62
   256
176
     0
 40
1.0
176
     0
 90
        2
176
     1
  1
strokes_ogs.tif
176
     1
290
     0
176
     1
 40
1.0
176
     1
 40
1.0
176
     1
  0
VISUALSTYLE
  5
36
102
{ACAD_REACTORS
330
2A
102
}
330
2A
100
AcDbVisualStyle
  2
Brighten
 70
    12
177
     3
291
     1
 70
    58
 90
        2
176
     1
 90
        2
176
     1
 90
        0
176
     1
 90
        0
176
     1
 40
0.6
176
     1
 40
30.0
176
     1
 62
     7
420
 16777215
176
     1
 90
        1
176
     1
 90
        4
176
     1
 62
     7
176
     1
 62
   257
176
     1
 90
        1
176
     1
 90
        1
176
     1
 40
1.0
176
     1
 90
        8
176
     1
 62
     7
176
     1
 40
1.0
176
     1
 90
        1
176
     1
 90
        6
176
     1
 90
        2
176
     1
 62
     7
176
     1
 90
        5
176
     1
 90
        0
176
     1
 90
        0
176
     1
290
     0
176
     1
 90
        1
176
     1
 40
50.0
176
     1
 90
        0
176
     1
290
     0
176
     1
290
     1
176
     1
290
     1
176
     1
290
     0
176
     1
290
     0
176
     1
290
     0
176
     1
290
     0
176
     1
290
     0
176
     1
290
     0
176
     1
 90
       50
176
     1
 40
0.0
176
     1
 40
1.0
176
     1
 90
        0
176
     1
 62
    18
420
        0
176
     1
 90
       50
176
     1
 90
        3
176
     1
 62
     5
420
      255
176
     1
290
     0
176
     1
 90
       50
176
     1
 90
       50
176
     1
 90
       50
176
     1
290
     0
176
     1
 90
       50
176
     1
 62
   256
176
     0
 40
1.0
176
     0
 90
        2
176
     1
  1
strokes_ogs.tif
176
     1
290
     0
176
     1
 40
1.0
176
     1
 40
1.0
176
     1
  0
VISUALSTYLE
  5
3A
102
{ACAD_REACTORS
330
2A
102
}
330
2A
100
AcDbVisualStyle
  2
ColorChange
 70
    16
177
     3
291
     1
 70
    58
 90
        2
176
     1
 90
        2
176
     1
 90
        3
176
     1
 90
        0
176
     1
 40
0.6
176
     1
 40
30.0
176
     1
 62
     8
420
  8421504
176
     1
 90
        1
176
     1
 90
        4
176
     1
 62
     7
176
     1
 62
   257
176
     1
 90
        1
176
     1
 90
        1
176
     1
 40
1.0
176
     1
 90
        8
176
     1
 62
     8
420
  8421504
176
     1
 40
1.0
176
     1
 90
        1
176
     1
 90
        6
176
     1
 90
        2
176
     1
 62
     7
176
     1
 90
        5
176
     1
 90
        0
176
     1
 90
        0
176
     1
290
     0
176
     1
 90
        1
176
     1
 40
0.0
176
     1
 90
        0
176
     1
290
     0
176
     1
290
     1
176
     1
290
     1
176
     1
290
     0
176
     1
290
     0
176
     1
290
     0
176
     1
290
     0
176
     1
290
     0
176
     1
290
     0
176
     1
 90
       50
176
     1
 40
0.0
176
     1
 40
1.0
176
     1
 90
        0
176
     1
 62
    18
420
        0
176
     1
 90
       50
176
     1
 90
        3
176
     1
 62
     5
420
      255
176
     1
290
     0
176
     1
 90
       50
176
     1
 90
       50
176
     1
 90
       50
176
     1
290
     0
176
     1
 90
       50
176
     1
 62
   256
176
     0
 40
1.0
176
     0
 90
        2
176
     1
  1
strokes_ogs.tif
176
     1
290
     0
176
     1
 40
1.0
176
     1
 40
1.0
176
     1
  0
VISUALSTYLE
  5
34
102
{ACAD_REACTORS
330
2A
102
}
330
2A
100
AcDbVisualStyle
  2
Conceptual
 70
     9
177
     3
291
     0
 70
    58
 90
        3
176
     1
 90
        2
176
     1
 90
        0
176
     1
 90
        0
176
     1
 40
0.6
176
     1
 40
30.0
176
     1
 62
     7
420
 16777215
176
     1
 90
        2
176
     1
 90
        2
176
     1
 62
     7
176
     1
 62
   257
176
     1
 90
        1
176
     1
 90
        1
176
     1
 40
179.0
176
     1
 90
        8
176
     1
 62
     7
176
     1
 40
1.0
176
     1
 90
        1
176
     1
 90
        6
176
     1
 90
        2
176
     1
 62
     7
176
     1
 90
        3
176
     1
 90
        0
176
     1
 90
        0
176
     1
290
     0
176
     1
 90
        1
176
     1
 40
0.0
176
     1
 90
        0
176
     1
290
     0
176
     1
290
     1
176
     1
290
     1
176
     1
290
     0
176
     1
290
     0
176
     1
290
     0
176
     1
290
     0
176
     1
290
     0
176
     1
290
     0
176
     1
 90
       50
176
     1
 40
0.0
176
     1
 40
1.0
176
     1
 90
        0
176
     1
 62
    18
420
        0
176
     1
 90
       50
176
     1
 90
        3
176
     1
 62
     5
420
      255
176
     1
290
     0
176
     1
 90
       50
176
     1
 90
       50
176
     1
 90
       50
176
     1
290
     0
176
     1
 90
       50
176
     1
 62
   256
176
     0
 40
1.0
176
     0
 90
        2
176
     1
  1
strokes_ogs.tif
176
     1
290
     0
176
     1
 40
1.0
176
     1
 40
1.0
176
     1
  0
VISUALSTYLE
  5
35
102
{ACAD_REACTORS
330
2A
102
}
330
2A
100
AcDbVisualStyle
  2
Dim
 70
    11
177
     3
291
     1
 70
    58
 90
        2
176
     1
 90
        2
176
     1
 90
        0
176
     1
 90
        0
176
     1
 40
0.6
176
     1
 40
30.0
176
     1
 62
     7
420
 16777215
176
     1
 90
        1
176
     1
 90
        4
176
     1
 62
     7
176
     1
 62
   257
176
     1
 90
        1
176
     1
 90
        1
176
     1
 40
1.0
176
     1
 90
        8
176
     1
 62
     7
176
     1
 40
1.0
176
     1
 90
        1
176
     1
 90
        6
176
     1
 90
        2
176
     1
 62
     7
176
     1
 90
        5
176
     1
 90
        0
176
     1
 90
        0
176
     1
290
     0
176
     1
 90
        1
176
     1
 40
-50.0
176
     1
 90
        0
176
     1
290
     0
176
     1
290
     1
176
     1
290
     1
176
     1
290
     0
176
     1
290
     0
176
     1
290
     0
176
     1
290
     0
176
     1
290
     0
176
     1
290
     0
176
     1
 90
       50
176
     1
 40
0.0
176
     1
 40
1.0
176
     1
 90
        0
176
     1
 62
    18
420
        0
176
     1
 90
       50
176
     1
 90
        3
176
     1
 62
     5
420
      255
176
     1
290
     0
176
     1
 90
       50
176
     1
 90
       50
176
     1
 90
       50
176
     1
290
     0
176
     1
 90
       50
176
     1
 62
   256
176
     0
 40
1.0
176
     0
 90
        2
176
     1
  1
strokes_ogs.tif
176
     1
290
     0
176
     1
 40
1.0
176
     1
 40
1.0
176
     1
  0
VISUALSTYLE
  5
3D
102
{ACAD_REACTORS
330
2A
102
}
330
2A
100
AcDbVisualStyle
  2
EdgeColorOff
 70
    22
177
     3
291
     1
 70
    58
 90
        2
176
     0
 90
        2
176
     0
 90
        0
176
     0
 90
        0
176
     0
 40
0.6
176
     0
 40
30.0
176
     0
 62
     7
420
 16777215
176
     0
 90
        1
176
     0
 90
        4
176
     0
 62
     7
176
     0
 62
   257
176
     0
 90
        1
176
     0
 90
        1
176
     0
 40
1.0
176
     0
 90
        8
176
     2
 62
     7
176
     0
 40
1.0
176
     0
 90
        1
176
     0
 90
        6
176
     0
 90
        2
176
     0
 62
     7
176
     0
 90
        5
176
     0
 90
        0
176
     0
 90
        0
176
     0
290
     0
176
     0
 90
        1
176
     0
 40
0.0
176
     0
 90
        0
176
     0
290
     0
176
     0
290
     1
176
     0
290
     1
176
     0
290
     0
176
     0
290
     0
176
     0
290
     0
176
     0
290
     0
176
     0
290
     0
176
     0
290
     0
176
     0
 90
       50
176
     0
 40
0.0
176
     0
 40
1.0
176
     0
 90
        0
176
     0
 62
    18
420
        0
176
     0
 90
       50
176
     0
 90
        3
176
     0
 62
     5
420
      255
176
     0
290
     0
176
     0
 90
       50
176
     0
 90
       50
176
     0
 90
       50
176
     0
290
     0
176
     0
 90
       50
176
     0
 62
   256
176
     0
 40
1.0
176
     0
 90
        2
176
     0
  1
strokes_ogs.tif
176
     0
290
     0
176
     0
 40
1.0
176
     0
 40
1.0
176
     0
  0
VISUALSTYLE
  5
39
102
{ACAD_REACTORS
330
2A
102
}
330
2A
100
AcDbVisualStyle
  2
Facepattern
 70
    15
177
     3
291
     1
 70
    58
 90
        2
176
     1
 90
        2
176
     1
 90
        0
176
     1
 90
        0
176
     1
 40
0.6
176
     1
 40
30.0
176
     1
 62
     7
420
 16777215
176
     1
 90
        1
176
     1
 90
        4
176
     1
 62
     7
176
     1
 62
   257
176
     1
 90
        1
176
     1
 90
        1
176
     1
 40
1.0
176
     1
 90
        8
176
     1
 62
     7
176
     1
 40
1.0
176
     1
 90
        1
176
     1
 90
        6
176
     1
 90
        2
176
     1
 62
     7
176
     1
 90
        5
176
     1
 90
        0
176
     1
 90
        0
176
     1
290
     0
176
     1
 90
        1
176
     1
 40
0.0
176
     1
 90
        0
176
     1
290
     0
176
     1
290
     1
176
     1
290
     1
176
     1
290
     0
176
     1
290
     0
176
     1
290
     0
176
     1
290
     0
176
     1
290
     0
176
     1
290
     0
176
     1
 90
       50
176
     1
 40
0.0
176
     1
 40
1.0
176
     1
 90
        0
176
     1
 62
    18
420
        0
176
     1
 90
       50
176
     1
 90
        3
176
     1
 62
     5
420
      255
176
     1
290
     0
176
     1
 90
       50
176
     1
 90
       50
176
     1
 90
       50
176
     1
290
     0
176
     1
 90
       50
176
     1
 62
   256
176
     0
 40
1.0
176
     0
 90
        2
176
     1
  1
strokes_ogs.tif
176
     1
290
     0
176
     1
 40
1.0
176
     1
 40
1.0
176
     1
  0
VISUALSTYLE
  5
2B
102
{ACAD_REACTORS
330
2A
102
}
330
2A
100
AcDbVisualStyle
  2
Flat
 70
     0
177
     3
291
     1
 70
    58
 90
        2
176
     1
 90
        1
176
     1
 90
        1
176
     1
 90
        2
176
     1
 40
0.6
176
     1
 40
30.0
176
     1
 62
     7
420
 16777215
176
     1
 90
        0
176
     1
 90
        0
176
     1
 62
     7
176
     1
 62
   257
176
     1
 90
        1
176
     1
 90
        1
176
     1
 40
1.0
176
     1
 90
        8
176
     1
 62
     7
176
     1
 40
1.0
176
     1
 90
        1
176
     1
 90
        6
176
     1
 90
        2
176
     1
 62
     7
176
     1
 90
        5
176
     1
 90
        0
176
     1
 90
        0
176
     1
290
     0
176
     1
 90
       13
176
     1
 40
0.0
176
     1
 90
        0
176
     1
290
     0
176
     1
290
     1
176
     1
290
     1
176
     1
290
     0
176
     1
290
     0
176
     1
290
     0
176
     1
290
     0
176
     1
290
     0
176
     1
290
     0
176
     1
 90
       50
176
     1
 40
0.0
176
     1
 40
1.0
176
     1
 90
        0
176
     1
 62
    18
420
        0
176
     1
 90
       50
176
     1
 90
        3
176
     1
 62
     5
420
      255
176
     1
290
     0
176
     1
 90
       50
176
     1
 90
       50
176
     1
 90
       50
176
     1
290
     0
176
     1
 90
       50
176
     1
 62
   256
176
     0
 40
1.0
176
     0
 90
        2
176
     1
  1
strokes_ogs.tif
176
     1
290
     0
176
     1
 40
1.0
176
     1
 40
1.0
176
     1
  0
VISUALSTYLE
  5
2C
102
{ACAD_REACTORS
330
2A
102
}
330
2A
100
AcDbVisualStyle
  2
FlatWithEdges
 70
     1
177
     3
291
     1
 70
    58
 90
        2
176
     1
 90
        1
176
     1
 90
        1
176
     1
 90
        2
176
     1
 40
0.6
176
     1
 40
30.0
176
     1
 62
     7
420
 16777215
176
     1
 90
        1
176
     1
 90
        0
176
     1
 62
     7
176
     1
 62
   257
176
     1
 90
        1
176
     1
 90
        1
176
     1
 40
1.0
176
     1
 90
        0
176
     1
 62
   257
176
     1
 40
1.0
176
     1
 90
        1
176
     1
 90
        6
176
     1
 90
        2
176
     1
 62
     7
176
     1
 90
        5
176
     1
 90
        0
176
     1
 90
        0
176
     1
290
     0
176
     1
 90
       13
176
     1
 40
0.0
176
     1
 90
        0
176
     1
290
     0
176
     1
290
     1
176
     1
290
     1
176
     1
290
     0
176
     1
290
     0
176
     1
290
     0
176
     1
290
     0
176
     1
290
     0
176
     1
290
     0
176
     1
 90
       50
176
     1
 40
0.0
176
     1
 40
1.0
176
     1
 90
        0
176
     1
 62
    18
420
        0
176
     1
 90
       50
176
     1
 90
        3
176
     1
 62
     5
420
      255
176
     1
290
     0
176
     1
 90
       50
176
     1
 90
       50
176
     1
 90
       50
176
     1
290
     0
176
     1
 90
       50
176
     1
 62
   256
176
     0
 40
1.0
176
     0
 90
        2
176
     1
  1
strokes_ogs.tif
176
     1
290
     0
176
     1
 40
1.0
176
     1
 40
1.0
176
     1
  0
VISUALSTYLE
  5
2D
102
{ACAD_REACTORS
330
2A
102
}
330
2A
100
AcDbVisualStyle
  2
Gouraud
 70
     2
177
     3
291
     1
 70
    58
 90
        2
176
     1
 90
        2
176
     1
 90
        1
176
     1
 90
        2
176
     1
 40
0.6
176
     1
 40
30.0
176
     1
 62
     7
420
 16777215
176
     1
 90
        0
176
     1
 90
        0
176
     1
 62
     7
176
     1
 62
   257
176
     1
 90
        1
176
     1
 90
        1
176
     1
 40
1.0
176
     1
 90
        0
176
     1
 62
     7
176
     1
 40
1.0
176
     1
 90
        1
176
     1
 90
        6
176
     1
 90
        2
176
     1
 62
     7
176
     1
 90
        5
176
     1
 90
        0
176
     1
 90
        0
176
     1
290
     0
176
     1
 90
       13
176
     1
 40
0.0
176
     1
 90
        0
176
     1
290
     0
176
     1
290
     1
176
     1
290
     1
176
     1
290
     0
176
     1
290
     0
176
     1
290
     0
176
     1
290
     0
176
     1
290
     0
176
     1
290
     0
176
     1
 90
       50
176
     1
 40
0.0
176
     1
 40
1.0
176
     1
 90
        0
176
     1
 62
    18
420
        0
176
     1
 90
       50
176
     1
 90
        3
176
     1
 62
     5
420
      255
176
     1
290
     0
176
     1
 90
       50
176
     1
 90
       50
176
     1
 90
       50
176
     1
290
     0
176
     1
 90
       50
176
     1
 62
   256
176
     0
 40
1.0
176
     0
 90
        2
176
     1
  1
strokes_ogs.tif
176
     1
290
     0
176
     1
 40
1.0
176
     1
 40
1.0
176
     1
  0
VISUALSTYLE
  5
2E
102
{ACAD_REACTORS
330
2A
102
}
330
2A
100
AcDbVisualStyle
  2
GouraudWithEdges
 70
     3
177
     3
291
     1
 70
    58
 90
        2
176
     1
 90
        2
176
     1
 90
        1
176
     1
 90
        2
176
     1
 40
0.6
176
     1
 40
30.0
176
     1
 62
     7
420
 16777215
176
     1
 90
        1
176
     1
 90
        0
176
     1
 62
     7
176
     1
 62
   257
176
     1
 90
        1
176
     1
 90
        1
176
     1
 40
1.0
176
     1
 90
        0
176
     1
 62
   257
176
     1
 40
1.0
176
     1
 90
        1
176
     1
 90
        6
176
     1
 90
        2
176
     1
 62
     7
176
     1
 90
        5
176
     1
 90
        0
176
     1
 90
        0
176
     1
290
     0
176
     1
 90
       13
176
     1
 40
0.0
176
     1
 90
        0
176
     1
290
     0
176
     1
290
     1
176
     1
290
     1
176
     1
290
     0
176
     1
290
     0
176
     1
290
     0
176
     1
290
     0
176
     1
290
     0
176
     1
290
     0
176
     1
 90
       50
176
     1
 40
0.0
176
     1
 40
1.0
176
     1
 90
        0
176
     1
 62
    18
420
        0
176
     1
 90
       50
176
     1
 90
        3
176
     1
 62
     5
420
      255
176
     1
290
     0
176
     1
 90
       50
176
     1
 90
       50
176
     1
 90
       50
176
     1
290
     0
176
     1
 90
       50
176
     1
 62
   256
176
     0
 40
1.0
176
     0
 90
        2
176
     1
  1
strokes_ogs.tif
176
     1
290
     0
176
     1
 40
1.0
176
     1
 40
1.0
176
     1
  0
VISUALSTYLE
  5
31
102
{ACAD_REACTORS
330
2A
102
}
330
2A
100
AcDbVisualStyle
  2
Hidden
 70
     6
177
     3
291
     0
 70
    58
 90
        1
176
     1
 90
        2
176
     1
 90
        2
176
     1
 90
        0
176
     1
 40
0.6
176
     1
 40
30.0
176
     1
 62
     7
420
 16777215
176
     1
 90
        2
176
     1
 90
        2
176
     1
 62
     7
176
     1
 62
   257
176
     1
 90
        2
176
     1
 90
        1
176
     1
 40
40.0
176
     1
 90
        0
176
     1
 62
   257
176
     1
 40
1.0
176
     1
 90
        1
176
     1
 90
        6
176
     1
 90
        2
176
     1
 62
     7
176
     1
 90
        3
176
     1
 90
        0
176
     1
 90
        0
176
     1
290
     0
176
     1
 90
        1
176
     1
 40
0.0
176
     1
 90
        0
176
     1
290
     0
176
     1
290
     1
176
     1
290
     1
176
     1
290
     0
176
     1
290
     0
176
     1
290
     0
176
     1
290
     0
176
     1
290
     0
176
     1
290
     0
176
     1
 90
       50
176
     1
 40
0.0
176
     1
 40
1.0
176
     1
 90
        0
176
     1
 62
    18
420
        0
176
     1
 90
       50
176
     1
 90
        3
176
     1
 62
     5
420
      255
176
     1
290
     0
176
     1
 90
       50
176
     1
 90
       50
176
     1
 90
       50
176
     1
290
     0
176
     1
 90
       50
176
     1
 62
   256
176
     0
 40
1.0
176
     0
 90
        2
176
     1
  1
strokes_ogs.tif
176
     1
290
     0
176
     1
 40
1.0
176
     1
 40
1.0
176
     1
  0
VISUALSTYLE
  5
3B
102
{ACAD_REACTORS
330
2A
102
}
330
2A
100
AcDbVisualStyle
  2
JitterOff
 70
    20
177
     3
291
     1
 70
    58
 90
        2
176
     0
 90
        2
176
     0
 90
        0
176
     0
 90
        0
176
     0
 40
0.6
176
     0
 40
30.0
176
     0
 62
     7
420
 16777215
176
     0
 90
        1
176
     0
 90
        4
176
     0
 62
     7
176
     0
 62
   257
176
     0
 90
        1
176
     0
 90
        1
176
     0
 40
1.0
176
     0
 90
       10
176
     2
 62
     7
176
     0
 40
1.0
176
     0
 90
        1
176
     0
 90
        6
176
     0
 90
        2
176
     0
 62
     7
176
     0
 90
        5
176
     0
 90
        0
176
     0
 90
        0
176
     0
290
     0
176
     0
 90
        1
176
     0
 40
0.0
176
     0
 90
        0
176
     0
290
     0
176
     0
290
     1
176
     0
290
     1
176
     0
290
     0
176
     0
290
     0
176
     0
290
     0
176
     0
290
     0
176
     0
290
     0
176
     0
290
     0
176
     0
 90
       50
176
     0
 40
0.0
176
     0
 40
1.0
176
     0
 90
        0
176
     0
 62
    18
420
        0
176
     0
 90
       50
176
     0
 90
        3
176
     0
 62
     5
420
      255
176
     0
290
     0
176
     0
 90
       50
176
     0
 90
       50
176
     0
 90
       50
176
     0
290
     0
176
     0
 90
       50
176
     0
 62
   256
176
     0
 40
1.0
176
     0
 90
        2
176
     0
  1
strokes_ogs.tif
176
     0
290
     0
176
     0
 40
1.0
176
     0
 40
1.0
176
     0
  0
VISUALSTYLE
  5
38
102
{ACAD_REACTORS
330
2A
102
}
330
2A
100
AcDbVisualStyle
  2
Linepattern
 70
    14
177
     3
291
     1
 70
    58
 90
        2
176
     1
 90
        2
176
     1
 90
        0
176
     1
 90
        0
176
     1
 40
0.6
176
     1
 40
30.0
176
     1
 62
     7
420
 16777215
176
     1
 90
        1
176
     1
 90
        4
176
     1
 62
     7
176
     1
 62
   257
176
     1
 90
        7
176
     1
 90
        7
176
     1
 40
1.0
176
     1
 90
        8
176
     1
 62
     7
176
     1
 40
1.0
176
     1
 90
        1
176
     1
 90
        6
176
     1
 90
        2
176
     1
 62
     7
176
     1
 90
        5
176
     1
 90
        0
176
     1
 90
        0
176
     1
290
     0
176
     1
 90
        1
176
     1
 40
0.0
176
     1
 90
        0
176
     1
290
     0
176
     1
290
     1
176
     1
290
     1
176
     1
290
     0
176
     1
290
     0
176
     1
290
     0
176
     1
290
     0
176
     1
290
     0
176
     1
290
     0
176
     1
 90
       50
176
     1
 40
0.0
176
     1
 40
1.0
176
     1
 90
        0
176
     1
 62
    18
420
        0
176
     1
 90
       50
176
     1
 90
        3
176
     1
 62
     5
420
      255
176
     1
290
     0
176
     1
 90
       50
176
     1
 90
       50
176
     1
 90
       50
176
     1
290
     0
176
     1
 90
       50
176
     1
 62
   256
176
     0
 40
1.0
176
     0
 90
        2
176
     1
  1
strokes_ogs.tif
176
     1
290
     0
176
     1
 40
1.0
176
     1
 40
1.0
176
     1
  0
VISUALSTYLE
  5
3C
102
{ACAD_REACTORS
330
2A
102
}
330
2A
100
AcDbVisualStyle
  2
OverhangOff
 70
    21
177
     3
291
     1
 70
    58
 90
        2
176
     0
 90
        2
176
     0
 90
        0
176
     0
 90
        0
176
     0
 40
0.6
176
     0
 40
30.0
176
     0
 62
     7
420
 16777215
176
     0
 90
        1
176
     0
 90
        4
176
     0
 62
     7
176
     0
 62
   257
176
     0
 90
        1
176
     0
 90
        1
176
     0
 40
1.0
176
     0
 90
        9
176
     2
 62
     7
176
     0
 40
1.0
176
     0
 90
        1
176
     0
 90
        6
176
     0
 90
        2
176
     0
 62
     7
176
     0
 90
        5
176
     0
 90
        0
176
     0
 90
        0
176
     0
290
     0
176
     0
 90
        1
176
     0
 40
0.0
176
     0
 90
        0
176
     0
290
     0
176
     0
290
     1
176
     0
290
     1
176
     0
290
     0
176
     0
290
     0
176
     0
290
     0
176
     0
290
     0
176
     0
290
     0
176
     0
290
     0
176
     0
 90
       50
176
     0
 40
0.0
176
     0
 40
1.0
176
     0
 90
        0
176
     0
 62
    18
420
        0
176
     0
 90
       50
176
     0
 90
        3
176
     0
 62
     5
420
      255
176
     0
290
     0
176
     0
 90
       50
176
     0
 90
       50
176
     0
 90
       50
176
     0
290
     0
176
     0
 90
       50
176
     0
 62
   256
176
     0
 40
1.0
176
     0
 90
        2
176
     0
  1
strokes_ogs.tif
176
     0
290
     0
176
     0
 40
1.0
176
     0
 40
1.0
176
     0
  0
VISUALSTYLE
  5
33
102
{ACAD_REACTORS
330
2A
102
}
330
2A
100
AcDbVisualStyle
  2
Realistic
 70
     8
177
     3
291
     0
 70
    58
 90
        2
176
     1
 90
        3
176
     1
 90
        0
176
     1
 90
        2
176
     1
 40
0.6
176
     1
 40
30.0
176
     1
 62
     7
420
 16777215
176
     1
 90
        0
176
     1
 90
        0
176
     1
 62
     7
176
     1
 62
   257
176
     1
 90
        1
176
     1
 90
        1
176
     1
 40
1.0
176
     1
 90
        8
176
     1
 62
   257
176
     1
 40
1.0
176
     1
 90
        1
176
     1
 90
        6
176
     1
 90
        2
176
     1
 62
     7
176
     1
 90
        3
176
     1
 90
        0
176
     1
 90
        0
176
     1
290
     0
176
     1
 90
       13
176
     1
 40
0.0
176
     1
 90
        0
176
     1
290
     0
176
     1
290
     1
176
     1
290
     1
176
     1
290
     0
176
     1
290
     0
176
     1
290
     0
176
     1
290
     0
176
     1
290
     0
176
     1
290
     0
176
     1
 90
       50
176
     1
 40
0.0
176
     1
 40
1.0
176
     1
 90
        0
176
     1
 62
    18
420
        0
176
     1
 90
       50
176
     1
 90
        3
176
     1
 62
     5
420
      255
176
     1
290
     0
176
     1
 90
       50
176
     1
 90
       50
176
     1
 90
       50
176
     1
290
     0
176
     1
 90
       50
176
     1
 62
   256
176
     0
 40
1.0
176
     0
 90
        2
176
     1
  1
strokes_ogs.tif
176
     1
290
     0
176
     1
 40
1.0
176
     1
 40
1.0
176
     1
  0
VISUALSTYLE
  5
42
102
{ACAD_REACTORS
330
2A
102
}
330
2A
100
AcDbVisualStyle
  2
Shaded
 70
    27
177
     3
291
     0
 70
    58
 90
        2
176
     1
 90
        2
176
     1
 90
        1
176
     1
 90
        2
176
     1
 40
0.6
176
     1
 40
30.0
176
     1
 62
     7
420
 16777215
176
     1
 90
        0
176
     1
 90
        4
176
     1
 62
     7
176
     1
 62
   257
176
     1
 90
        1
176
     1
 90
        1
176
     1
 40
1.0
176
     1
 90
        8
176
     1
 62
   257
176
     1
 40
1.0
176
     1
 90
        1
176
     1
 90
        6
176
     1
 90
        2
176
     1
 62
     8
420
  7895160
176
     1
 90
        3
176
     1
 90
        0
176
     1
 90
        0
176
     1
290
     0
176
     1
 90
        5
176
     1
 40
0.0
176
     1
 90
        0
176
     1
290
     0
176
     1
290
     1
176
     1
290
     1
176
     1
290
     0
176
     1
290
     0
176
     1
290
     0
176
     1
290
     0
176
     1
290
     0
176
     1
290
     0
176
     1
 90
       50
176
     1
 40
0.0
176
     1
 40
1.0
176
     1
 90
        0
176
     1
 62
    18
420
        0
176
     1
 90
       50
176
     1
 90
        3
176
     1
 62
     5
420
      255
176
     1
290
     0
176
     1
 90
       50
176
     1
 90
       50
176
     1
 90
       50
176
     1
290
     0
176
     1
 90
       50
176
     1
 62
   256
176
     0
 40
1.0
176
     0
 90
        2
176
     1
  1
strokes_ogs.tif
176
     1
290
     0
176
     1
 40
1.0
176
     1
 40
1.0
176
     1
  0
VISUALSTYLE
  5
41
102
{ACAD_REACTORS
330
2A
102
}
330
2A
100
AcDbVisualStyle
  2
Shaded with edges
 70
    26
177
     3
291
     0
 70
    58
 90
        2
176
     1
 90
        2
176
     1
 90
        1
176
     1
 90
        2
176
     1
 40
0.6
176
     1
 40
30.0
176
     1
 62
     7
420
 16777215
176
     1
 90
        1
176
     1
 90
       10
176
     1
 62
     7
176
     1
 62
   257
176
     1
 90
        2
176
     1
 90
        1
176
     1
 40
1.0
176
     1
 90
        8
176
     1
 62
   257
176
     1
 40
1.0
176
     1
 90
        1
176
     1
 90
        6
176
     1
 90
        2
176
     1
 62
     7
176
     1
 90
        3
176
     1
 90
        0
176
     1
 90
        0
176
     1
290
     0
176
     1
 90
        5
176
     1
 40
0.0
176
     1
 90
        0
176
     1
290
     0
176
     1
290
     1
176
     1
290
     1
176
     1
290
     0
176
     1
290
     0
176
     1
290
     0
176
     1
290
     0
176
     1
290
     0
176
     1
290
     0
176
     1
 90
       50
176
     1
 40
0.0
176
     1
 40
1.0
176
     1
 90
        0
176
     1
 62
    18
420
        0
176
     1
 90
       50
176
     1
 90
        3
176
     1
 62
     5
420
      255
176
     1
290
     0
176
     1
 90
       50
176
     1
 90
       50
176
     1
 90
       50
176
     1
290
     0
176
     1
 90
       50
176
     1
 62
   256
176
     0
 40
1.0
176
     0
 90
        2
176
     1
  1
strokes_ogs.tif
176
     1
290
     0
176
     1
 40
1.0
176
     1
 40
1.0
176
     1
  0
VISUALSTYLE
  5
3E
102
{ACAD_REACTORS
330
2A
102
}
330
2A
100
AcDbVisualStyle
  2
Shades of Gray
 70
    23
177
     3
291
     0
 70
    58
 90
        2
176
     1
 90
        2
176
     1
 90
        3
176
     1
 90
        0
176
     1
 40
0.6
176
     1
 40
30.0
176
     1
 62
     7
420
 16777215
176
     1
 90
        2
176
     1
 90
        2
176
     1
 62
     7
176
     1
 62
     7
176
     1
 90
        1
176
     1
 90
        1
176
     1
 40
40.0
176
     1
 90
        8
176
     1
 62
     7
176
     1
 40
1.0
176
     1
 90
        1
176
     1
 90
        6
176
     1
 90
        2
176
     1
 62
     7
176
     1
 90
        3
176
     1
 90
        0
176
     1
 90
        0
176
     1
290
     0
176
     1
 90
        1
176
     1
 40
0.0
176
     1
 90
        0
176
     1
290
     0
176
     1
290
     1
176
     1
290
     1
176
     1
290
     0
176
     1
290
     0
176
     1
290
     0
176
     1
290
     0
176
     1
290
     0
176
     1
290
     0
176
     1
 90
       50
176
     1
 40
0.0
176
     1
 40
1.0
176
     1
 90
        0
176
     1
 62
    18
420
        0
176
     1
 90
       50
176
     1
 90
        3
176
     1
 62
     5
420
      255
176
     1
290
     0
176
     1
 90
       50
176
     1
 90
       50
176
     1
 90
       50
176
     1
290
     0
176
     1
 90
       50
176
     1
 62
   256
176
     0
 40
1.0
176
     0
 90
        2
176
     1
  1
strokes_ogs.tif
176
     1
290
     0
176
     1
 40
1.0
176
     1
 40
1.0
176
     1
  0
VISUALSTYLE
  5
3F
102
{ACAD_REACTORS
330
2A
102
}
330
2A
100
AcDbVisualStyle
  2
Sketchy
 70
    24
177
     3
291
     0
 70
    58
 90
        1
176
     1
 90
        2
176
     1
 90
        2
176
     1
 90
        0
176
     1
 40
0.6
176
     1
 40
30.0
176
     1
 62
     7
420
 16777215
176
     1
 90
        2
176
     1
 90
        2
176
     1
 62
     7
176
     1
 62
     7
176
     1
 90
        1
176
     1
 90
        1
176
     1
 40
40.0
176
     1
 90
       11
176
     1
 62
     7
176
     1
 40
1.0
176
     1
 90
        1
176
     1
 90
        6
176
     1
 90
        2
176
     1
 62
     7
176
     1
 90
        6
176
     1
 90
        0
176
     1
 90
        0
176
     1
290
     0
176
     1
 90
        1
176
     1
 40
0.0
176
     1
 90
        0
176
     1
290
     0
176
     1
290
     1
176
     1
290
     1
176
     1
290
     0
176
     1
290
     0
176
     1
290
     0
176
     1
290
     0
176
     1
290
     0
176
     1
290
     0
176
     1
 90
       50
176
     1
 40
0.0
176
     1
 40
1.0
176
     1
 90
        0
176
     1
 62
    18
420
        0
176
     1
 90
       50
176
     1
 90
        3
176
     1
 62
     5
420
      255
176
     1
290
     0
176
     1
 90
       50
176
     1
 90
       50
176
     1
 90
       50
176
     1
290
     0
176
     1
 90
       50
176
     1
 62
   256
176
     0
 40
1.0
176
     0
 90
        2
176
     1
  1
strokes_ogs.tif
176
     1
290
     0
176
     1
 40
1.0
176
     1
 40
1.0
176
     1
  0
VISUALSTYLE
  5
37
102
{ACAD_REACTORS
330
2A
102
}
330
2A
100
AcDbVisualStyle
  2
Thicken
 70
    13
177
     3
291
     1
 70
    58
 90
        2
176
     1
 90
        2
176
     1
 90
        0
176
     1
 90
        0
176
     1
 40
0.6
176
     1
 40
30.0
176
     1
 62
     7
420
 16777215
176
     1
 90
        1
176
     1
 90
        4
176
     1
 62
     7
176
     1
 62
   257
176
     1
 90
        1
176
     1
 90
        1
176
     1
 40
1.0
176
     1
 90
       12
176
     1
 62
     7
176
     1
 40
1.0
176
     1
 90
        1
176
     1
 90
        6
176
     1
 90
        2
176
     1
 62
     7
176
     1
 90
        5
176
     1
 90
        0
176
     1
 90
        0
176
     1
290
     0
176
     1
 90
        1
176
     1
 40
0.0
176
     1
 90
        0
176
     1
290
     0
176
     1
290
     1
176
     1
290
     1
176
     1
290
     0
176
     1
290
     0
176
     1
290
     0
176
     1
290
     0
176
     1
290
     0
176
     1
290
     0
176
     1
 90
       50
176
     1
 40
0.0
176
     1
 40
1.0
176
     1
 90
        0
176
     1
 62
    18
420
        0
176
     1
 90
       50
176
     1
 90
        3
176
     1
 62
     5
420
      255
176
     1
290
     0
176
     1
 90
       50
176
     1
 90
       50
176
     1
 90
       50
176
     1
290
     0
176
     1
 90
       50
176
     1
 62
   256
176
     0
 40
1.0
176
     0
 90
        2
176
     1
  1
strokes_ogs.tif
176
     1
290
     0
176
     1
 40
1.0
176
     1
 40
1.0
176
     1
  0
VISUALSTYLE
  5
30
102
{ACAD_REACTORS
330
2A
102
}
330
2A
100
AcDbVisualStyle
  2
Wireframe
 70
     5
177
     3
291
     0
 70
    58
 90
        0
176
     1
 90
        2
176
     1
 90
        0
176
     1
 90
        0
176
     1
 40
0.6
176
     1
 40
30.0
176
     1
 62
     7
420
 16777215
176
     1
 90
        1
176
     1
 90
        4
176
     1
 62
     7
176
     1
 62
   257
176
     1
 90
        1
176
     1
 90
        1
176
     1
 40
1.0
176
     1
 90
        0
176
     1
 62
   257
176
     1
 40
1.0
176
     1
 90
        1
176
     1
 90
        6
176
     1
 90
        2
176
     1
 62
     7
176
     1
 90
        3
176
     1
 90
        0
176
     1
 90
        0
176
     1
290
     0
176
     1
 90
        1
176
     1
 40
0.0
176
     1
 90
        0
176
     1
290
     0
176
     1
290
     1
176
     1
290
     1
176
     1
290
     0
176
     1
290
     0
176
     1
290
     0
176
     1
290
     0
176
     1
290
     0
176
     1
290
     0
176
     1
 90
       50
176
     1
 40
0.0
176
     1
 40
1.0
176
     1
 90
        0
176
     1
 62
    18
420
        0
176
     1
 90
       50
176
     1
 90
        3
176
     1
 62
     5
420
      255
176
     1
290
     0
176
     1
 90
       50
176
     1
 90
       50
176
     1
 90
       50
176
     1
290
     0
176
     1
 90
       50
176
     1
 62
   256
176
     0
 40
1.0
176
     0
 90
        2
176
     1
  1
strokes_ogs.tif
176
     1
290
     0
176
     1
 40
1.0
176
     1
 40
1.0
176
     1
  0
VISUALSTYLE
  5
40
102
{ACAD_REACTORS
330
2A
102
}
330
2A
100
AcDbVisualStyle
  2
X-Ray
 70
    25
177
     3
291
     0
 70
    58
 90
        2
176
     1
 90
        2
176
     1
 90
        1
176
     1
 90
        1
176
     1
 40
0.5
176
     1
 40
30.0
176
     1
 62
     7
420
 16777215
176
     1
 90
        1
176
     1
 90
        0
176
     1
 62
     7
176
     1
 62
   257
176
     1
 90
        1
176
     1
 90
        1
176
     1
 40
1.0
176
     1
 90
        8
176
     1
 62
     7
176
     1
 40
1.0
176
     1
 90
        1
176
     1
 90
        6
176
     1
 90
        2
176
     1
 62
     7
176
     1
 90
        3
176
     1
 90
        0
176
     1
 90
        0
176
     1
290
     0
176
     1
 90
       13
176
     1
 40
0.0
176
     1
 90
        0
176
     1
290
     0
176
     1
290
     1
176
     1
290
     1
176
     1
290
     0
176
     1
290
     0
176
     1
290
     0
176
     1
290
     0
176
     1
290
     0
176
     1
290
     0
176
     1
 90
       50
176
     1
 40
0.0
176
     1
 40
1.0
176
     1
 90
        0
176
     1
 62
    18
420
        0
176
     1
 90
       50
176
     1
 90
        3
176
     1
 62
     5
420
      255
176
     1
290
     0
176
     1
 90
       50
176
     1
 90
       50
176
     1
 90
       50
176
     1
290
     0
176
     1
 90
       50
176
     1
 62
   256
176
     0
 40
1.0
176
     0
 90
        2
176
     1
  1
strokes_ogs.tif
176
     1
290
     0
176
     1
 40
1.0
176
     1
 40
1.0
176
     1
  0
DICTIONARYVAR
  5
263
102
{ACAD_REACTORS
330
262
102
}
330
262
100
DictionaryVariables
280
     0
  1
1:1
  0
DICTIONARYVAR
  5
26B
102
{ACAD_REACTORS
330
262
102
}
330
262
100
DictionaryVariables
280
     0
  1
3.500000
  0
DICTIONARYVAR
  5
26C
102
{ACAD_REACTORS
330
262
102
}
330
262
100
DictionaryVariables
280
     0
  1
acadiso.lin
  0
DICTIONARYVAR
  5
268
102
{ACAD_REACTORS
330
262
102
}
330
262
100
DictionaryVariables
280
     0
  1
Standard
  0
DICTIONARYVAR
  5
267
102
{ACAD_REACTORS
330
262
102
}
330
262
100
DictionaryVariables
280
     0
  1
Standard
  0
DICTIONARY
  5
264
330
6A
100
AcDbDictionary
280
     1
281
     1
  3
ACAD_ROUNDTRIP_2008_TABLESTYLE_CELLSTYLEMAP
360
265
  0
CELLSTYLEMAP
  5
265
102
{ACAD_REACTORS
330
264
102
}
330
264
100
AcDbCellStyleMap
 90
        3
300
CELLSTYLE
  1
TABLEFORMAT_BEGIN
 90
        5
170
     1
 91
        0
 92
    32768
 62
   257
 93
        1
300
CONTENTFORMAT
  1
CONTENTFORMAT_BEGIN
 90
        0
 91
        0
 92
        4
 93
        0
300

 40
0.0
140
1.0
 94
        5
 62
     0
340
11
144
6.0
309
CONTENTFORMAT_END
171
     1
301
MARGIN
  1
CELLMARGIN_BEGIN
 40
1.5
 40
1.5
 40
1.5
 40
1.5
 40
1.5
 40
1.5
309
CELLMARGIN_END
 94
        6
 95
        1
302
GRIDFORMAT
  1
GRIDFORMAT_BEGIN
 90
        0
 91
        1
 62
     0
 92
       -2
340
14
 93
        0
 40
0.045
309
GRIDFORMAT_END
 95
        2
302
GRIDFORMAT
  1
GRIDFORMAT_BEGIN
 90
        0
 91
        1
 62
     0
 92
       -2
340
14
 93
        0
 40
0.045
309
GRIDFORMAT_END
 95
        4
302
GRIDFORMAT
  1
GRIDFORMAT_BEGIN
 90
        0
 91
        1
 62
     0
 92
       -2
340
14
 93
        0
 40
0.045
309
GRIDFORMAT_END
 95
        8
302
GRIDFORMAT
  1
GRIDFORMAT_BEGIN
 90
        0
 91
        1
 62
     0
 92
       -2
340
14
 93
        0
 40
0.045
309
GRIDFORMAT_END
 95
       16
302
GRIDFORMAT
  1
GRIDFORMAT_BEGIN
 90
        0
 91
        1
 62
     0
 92
       -2
340
14
 93
        0
 40
0.045
309
GRIDFORMAT_END
 95
       32
302
GRIDFORMAT
  1
GRIDFORMAT_BEGIN
 90
        0
 91
        1
 62
     0
 92
       -2
340
14
 93
        0
 40
0.045
309
GRIDFORMAT_END
309
TABLEFORMAT_END
  1
CELLSTYLE_BEGIN
 90
        1
 91
        1
300
_TITLE
309
CELLSTYLE_END
300
CELLSTYLE
  1
TABLEFORMAT_BEGIN
 90
        5
170
     1
 91
        0
 92
        0
 62
   257
 93
        1
300
CONTENTFORMAT
  1
CONTENTFORMAT_BEGIN
 90
        0
 91
        0
 92
        4
 93
        0
300

 40
0.0
140
1.0
 94
        5
 62
     0
340
11
144
4.5
309
CONTENTFORMAT_END
171
     1
301
MARGIN
  1
CELLMARGIN_BEGIN
 40
1.5
 40
1.5
 40
1.5
 40
1.5
 40
1.5
 40
1.5
309
CELLMARGIN_END
 94
        6
 95
        1
302
GRIDFORMAT
  1
GRIDFORMAT_BEGIN
 90
        0
 91
        1
 62
     0
 92
       -2
340
14
 93
        0
 40
0.045
309
GRIDFORMAT_END
 95
        2
302
GRIDFORMAT
  1
GRIDFORMAT_BEGIN
 90
        0
 91
        1
 62
     0
 92
       -2
340
14
 93
        0
 40
0.045
309
GRIDFORMAT_END
 95
        4
302
GRIDFORMAT
  1
GRIDFORMAT_BEGIN
 90
        0
 91
        1
 62
     0
 92
       -2
340
14
 93
        0
 40
0.045
309
GRIDFORMAT_END
 95
        8
302
GRIDFORMAT
  1
GRIDFORMAT_BEGIN
 90
        0
 91
        1
 62
     0
 92
       -2
340
14
 93
        0
 40
0.045
309
GRIDFORMAT_END
 95
       16
302
GRIDFORMAT
  1
GRIDFORMAT_BEGIN
 90
        0
 91
        1
 62
     0
 92
       -2
340
14
 93
        0
 40
0.045
309
GRIDFORMAT_END
 95
       32
302
GRIDFORMAT
  1
GRIDFORMAT_BEGIN
 90
        0
 91
        1
 62
     0
 92
       -2
340
14
 93
        0
 40
0.045
309
GRIDFORMAT_END
309
TABLEFORMAT_END
  1
CELLSTYLE_BEGIN
 90
        2
 91
        1
300
_HEADER
309
CELLSTYLE_END
300
CELLSTYLE
  1
TABLEFORMAT_BEGIN
 90
        5
170
     1
 91
        0
 92
        0
 62
   257
 93
        1
300
CONTENTFORMAT
  1
CONTENTFORMAT_BEGIN
 90
        0
 91
        0
 92
        4
 93
        0
300

 40
0.0
140
1.0
 94
        2
 62
     0
340
11
144
4.5
309
CONTENTFORMAT_END
171
     1
301
MARGIN
  1
CELLMARGIN_BEGIN
 40
1.5
 40
1.5
 40
1.5
 40
1.5
 40
1.5
 40
1.5
309
CELLMARGIN_END
 94
        6
 95
        1
302
GRIDFORMAT
  1
GRIDFORMAT_BEGIN
 90
        0
 91
        1
 62
     0
 92
       -2
340
14
 93
        0
 40
0.045
309
GRIDFORMAT_END
 95
        2
302
GRIDFORMAT
  1
GRIDFORMAT_BEGIN
 90
        0
 91
        1
 62
     0
 92
       -2
340
14
 93
        0
 40
0.045
309
GRIDFORMAT_END
 95
        4
302
GRIDFORMAT
  1
GRIDFORMAT_BEGIN
 90
        0
 91
        1
 62
     0
 92
       -2
340
14
 93
        0
 40
0.045
309
GRIDFORMAT_END
 95
        8
302
GRIDFORMAT
  1
GRIDFORMAT_BEGIN
 90
        0
 91
        1
 62
     0
 92
       -2
340
14
 93
        0
 40
0.045
309
GRIDFORMAT_END
 95
       16
302
GRIDFORMAT
  1
GRIDFORMAT_BEGIN
 90
        0
 91
        1
 62
     0
 92
       -2
340
14
 93
        0
 40
0.045
309
GRIDFORMAT_END
 95
       32
302
GRIDFORMAT
  1
GRIDFORMAT_BEGIN
 90
        0
 91
        1
 62
     0
 92
       -2
340
14
 93
        0
 40
0.045
309
GRIDFORMAT_END
309
TABLEFORMAT_END
  1
CELLSTYLE_BEGIN
 90
        3
 91
        2
300
_DATA
309
CELLSTYLE_END
  0
ENDSEC
  0
EOF
